Song name
# A B C D E F G H I J K L M N O P Q R S T U V W X Y Z

Moving Mountains - The Cascade tab

This is the intro for the song "The Cascade" by Moving Mountains.
Tab by: menidi


Tuning is Open Dadd9

e|----------------------------------------------------------------------|
A|---------0---------------0---------------0---------------0------------|
F#|------7-------7-------7-------8-------8-------8-------8-------8------|
D|-----7-------7---7---7-------7---7---9-------9---9---9-------9---9----|
A|----------------------------------------------------------------------|
D|---0---------------0---------------9---------------9------------------|

e|----------------------------------------------------------------------|
A|---------0---------------0---------------0---------------0------------|
F#|------3-------3-------2-------2-------3-------3-------3-------3------|
D|-----4-------4---4---4-------4---4---4-------4---4---4-------4---4----|
A|----------------------------------------------------------------------|
D|---4---------------4---------------0---------------0------------------|


This is the other guitar:

e|-------------------------------------------------------------------------|
A|--------0--------0--------0--------0--------0--------0--------0--------0-|
F#|------------------------------------------------------------------------|
D|--14-14----14-14----14-14----14-14----12-12----12-12----12-12----12-12---|
A|-------------------------------------------------------------------------|
D|-------------------------------------------------------------------------|

e|-------------------------------------------------------------------------|
A|--------0--------0--------0--------0--------0--------0--------0--------0-|
F#|------------------------------------------------------------------------|
D|--11-11----11-11----11-11----11-11----12-12----12-12----12-12----12-12---|
A|-------------------------------------------------------------------------|
D|-------------------------------------------------------------------------|
Tap to rate this tab
 
# A B C D E F G H I J K L M N O P Q R S T U V W X Y Z