Song name
# A B C D E F G H I J K L M N O P Q R S T U V W X Y Z

Moving Mountains - The Cascade tab

-------------------------------------------------------------------------------
                             Moving Mountains - The Cascade
-------------------------------------------------------------------------------
Tabbed by: WantsLesPaul

Tuning: Tune to Open D, leave the high e alone.

I'm not 100% sure about this, but it sounds really close. I will post a Guitar Pro 
5 tab of the whole song if I ever finish it :p

Intro:Gregory Dunn
e|-------------------------------------------------------------------------|
A|--------0-----------------0-----------------0-----------------0----------|
F#|--------------0-----------------0-----------------0-----------------0---|
D|-----11---11-----------11---11-----------12---12-----------12---12-------|
A|---9---------9-------9---------9-------9---------9-------9---------9-----|
D|-0-----------------0-----------------9-----------------9-----------------|

e|-------------------------------------------------------------------|
A|-------0-----------------0---------------0---------------0---------|
F#|--------------0---------------0---------------0---------------0---|
D|-----7----7------------6---6-----------7---7-----------7---7-------|
A|---4--------4--------4-------4-------9-------9-------9-------9-----|
D|-4-----------------4---------------0---------------0---------------|

Intro:Frank Graniero
e|-------------------------------------------------------------------------------------|
A|-------12----------12----------12----------12--------12-------12-------12-------12---|
F#|10-10----10-10-10----10-10-10----10-10-10----10-8-8----8-8-8----8-8-8----8-8-8----8-|
D|-------------------------------------------------------------------------------------|
A|-------------------------------------------------------------------------------------|
D|-------------------------------------------------------------------------------------|

e|-------------------------------------------------------------------------|
A|-----12-------12-------12-------12-------12-------12-------12-------12---|Live he sometimes plays
F#|7-7----7-7-7----7-7-7----7-7-7----7-8-8----8-8-8----8-8-8----8-8-8----8-|  this string open
D|-------------------------------------------------------------------------|
A|-------------------------------------------------------------------------|and throws in some
D|-------------------------------------------------------------------------| open e's as well

Verse:Gregory Dunn
e|-----0---------------0---------------0---------------0-----------|
A|-------------0---------------0---------------0---------------0---|
F#|----------------------------------------------------------------|
D|-2-2---2-2-2---2-2-2---2-2-2---2-4-4---4-4-4---4-4-4---4-4-4---4-|
A|-----------------------------------------------------------------|
D|-----------------------------------------------------------------|

e|-----0---------------0---------------0---------------0-----------|
A|-------------0---------------0---------------0---------------0---|
F#|----------------------------------------------------------------|
D|-2-2---2-2-2---2-2-2---2-2-2---2-0-0---0-0-0---0-0-0---0-0-0---0-|
A|-----------------------------------------------------------------|
D|-----------------------------------------------------------------|

Verse:Frank Graniero
e|---------0---------------0---------------0---------------0-------|
A|-----0---------------0---------------0---------------0-----------|
F#|--7-------7---7---7-------7---7---7-------7---7---7-------7---7-|
D|-------9-----9---------9-----9---------9-----9---------9-----9---|
A|-7---------------7---------------9---------------9---------------|
D|-----------------------------------------------------------------|

e|---------0---------------0---------------0---------------0-------|
A|-----0---------------0---------------0---------------0-----------|
F#|--7-------7---7---7-------7---7---7-------7---7---7-------7---7-|
D|-------9-----9---------9-----9---------9-----9---------9-----9---|
A|-7---------------7---------------5---------------5---------------|
D|-----------------------------------------------------------------|
Tap to rate this tab
 
# A B C D E F G H I J K L M N O P Q R S T U V W X Y Z