Song name
# A B C D E F G H I J K L M N O P Q R S T U V W X Y Z

Moving On - Audio Romance tab

esta es mi primera cancion aqui y espero que les guste.si tienen dudas
o comentarios diganmelo a mi correo.
carlos-perron@hotmail.com



intro:A#m,F#,C#,G#

verso1.

F#        G#         A#m           G#
Estoy viviendo en un sueño desde que estas junto a mi
F#        G#         A#m           G#
deseándote simplemente para poder ser feliz
F#        G#         A#m           G#
ven y toma ya mi mano y hazme volar junto a ti
F#  G#      A#m    G#
[cierra los ojos y no me dejes]

CORO:

e|--13-13-13-13-13-13-11-9-9/16-16-16-16-16-16--|
B|----------------------------------------------|
G|----------------------------------------------| x8
D|----------------------------------------------|
A|----------------------------------------------|
E|----------------------------------------------|

A#m    F#      C#                       G#
Y nooooo!! Me pidas k te olvide por que eso es  imposible.
A#m    F#      C#                       G#
Pero noooo!! Me pidas k regrese a ti pes ya no siento yo lo mismo.

verso2.

F#        G#        A#m        G#
Te despiertas de mañana y a tu lado yo no estoy
F#        G#         A#m       G#
tantos sueños k tuvimos de vivir juntos los dos
F#        G#         A#m       G#
el recuerdo se te viene a la cabeza sin control
F#   G#   A#m   G#
[y yo ya no estoy]



CORO:

e|--13-13-13-13-13-13-11-9-9/16-16-16-16-16-16--|
B|----------------------------------------------|
G|----------------------------------------------| x8
D|----------------------------------------------|
A|----------------------------------------------|
E|----------------------------------------------|

A#m    F#      C#                       G#
Y nooooo!! Me pidas k te olvide por que eso es  imposible.
A#m    F#      C#                       G#
Pero noooo!! Me pidas k regrese a ti pes ya no siento yo lo mismo.

PUENTE:BAJO:A#m,F# x2

coro:

A#m    F#      C#                       G#
Y nooooo!! Me pidas k te olvide por que eso es  imposible.

e|--------------------------------------|
B|-14-14-14-13-13-13-9-9-9-7-7-7-6-6-6--|
G|--------------------------------------|
D|--------------------------------------|
A|--------------------------------------|
E|--------------------------------------|


e|--------------------------------------|
B|-14-14-14-13-13-13-9-9-9-7-7-7-6-6-6--|
G|--------------------------------------|
D|--------------------------------------|
A|--------------------------------------|
E|--------------------------------------|


e|--------------------------------------|
B|-14-14-14-13-13-13-9-9-9-7-7-7-6-6-6--|
G|--------------------------------------|
D|--------------------------------------|
A|--------------------------------------|
E|--------------------------------------|


e|------------------|
B|-6-6-7-7-6-6-7-7--|
G|------------------|
D|------------------|
A|------------------|
E|------------------|


A#m    F#      C#                       G#
Pero noooo!! Me pidas k regrese a ti pes ya no siento yo lo mismo.


e|--13-13-13-11-11-11--------------------------|
B|--------------------14-14-14-13-13-13-9-9-9--|
G|---------------------------------------------|
D|---------------------------------------------|
A|---------------------------------------------|
E|---------------------------------------------|


e|--13-13-13-11-11-11--------------------------|
B|--------------------14-14-14-13-13-13-9-9-9--|
G|---------------------------------------------|
D|---------------------------------------------|
A|---------------------------------------------|
E|---------------------------------------------|



e|--13-13-13-11-11-11--------------------------|
B|--------------------14-14-14-13-13-13-9-9-9--|
G|---------------------------------------------|
D|---------------------------------------------|
A|---------------------------------------------|
E|---------------------------------------------|


e|------------------|
B|-6-6-7-7-6-6-7-7--|
G|------------------|
D|------------------|
A|------------------|
E|------------------|



aaaaaaaaaaaaa!!!

e|------------------|
B|-7/9-7-6----------|
G|---------6--------|
D|------------------|
A|------------------|
E|------------------|


aaaaaaaaaaaaa!!!


e|------------------|
B|-7/9-7-6----------|
G|---------8--------|
D|------------------|
A|------------------|
E|------------------|




A#m
No kiero verte aki
F#
disculpame pero no vuelvas
C#
tu no sabes sentir
G#
y yo no quiero verte.


FIN:A#m
Tap to rate this tab
# A B C D E F G H I J K L M N O P Q R S T U V W X Y Z