Song name
# A B C D E F G H I J K L M N O P Q R S T U V W X Y Z

Moving On - Dejate Caer tab

DEJATE CAER
intro
e|---------------------|
B|---------------------|
G|---------------------|
D|--444--222--000--222-|x4
A|--444--222--000--222-|
E|--444--222--000--222-|


i luego va así:
e|--------------------------|
B|--------------------------|
G|--------------------------|
D|--0000000000-—2222222222--|
A|--0000000000--2222222222--|
E|--0000000000--2222222222--|

salta, extiende tus alas.... (kn p.m.)
e|------------------------|
B|------------------------|
G|------------------------|
D|--444-4-00000-222-2-444-|x4
A|--444-4-00000-222-2-444-|
E|--444-4-00000-222-2-444-|

dejaaate caer....                               hai barreras q romper....
e|-------------------------------------------------------|
B|-------------------------------------------------------|
G|-------------------------------------------------------|
D|--444444--22222—-000-222-44444/2/4/44444/2/44444/2/444-|x2
A|--444444--22222—-000-222-44444/2/4/44444/2/44444/2/444-|
E|--444444--22222—-000-222-44444/2/4/44444/2/44444/2/444-|

(despues esto)

q romper....

|--------------------|
|--------------------|
|--------------------|
|-444444444-0000-222-|
|-444444444-0000-222-|
|-444444444-0000-222-|

vamos, dejate caer recibe al mundo.......
e|---------------------|
B|---------------------|
G|---------------------|
D|--444--222--000--222-|x4
A|--444--222--000--222-|
E|--444--222--000--222-|


luego esto:
e|--------------------|
B|-11h12h11h12-12-^12-|
G|--------------------|
D|--------------------|
A|--------------------|
E|--------------------|


salta, no haz visto el mundo dzd aki........
e|------------------------|
B|------------------------|
G|------------------------|
D|--444-4-00000-222-2-444-|x4
A|--444-4-00000-222-2-444-|
E|--444-4-00000-222-2-444-|

dejaaate caer....                            no ver asia atras...
e|-------------------------------------------------------|
B|-------------------------------------------------------|
G|-------------------------------------------------------|
D|--444444--22222—-000-222-44444/2/4/44444/2/44444/2/444-|x2
A|--444444--22222—-000-222-44444/2/4/44444/2/44444/2/444-|
E|--444444--22222—-000-222-44444/2/4/44444/2/44444/2/444-|

(despues esto)

asia atras....

|--------------------|
|--------------------|
|--------------------|
|-444444444-0000-222-|
|-444444444-0000-222-|
|-444444444-0000-222-|


ooooo... oooo...   vamos, dejate caer, dejate caer, dejate caeeeeeeeer.......
e|-----------------| |----------------|
B|-----------------| |----------------|
G|-----------------| |----------------|
D|--2h44--2-4-2-4--| |--2-4-2-4-5-2-4-|-------->esto ultimo lo tocan varias
A|--2h44--2-4-2-4--| |--2-4-2-4-5-2-4-| hasta iegar al coro!!
E|--2h44--2-4-2-4--| |--2-4-2-4-5-2-4-|


vamos, dejate caer recibe al mundo con los brazos abiertos........
e|--------------------------------------------|
B|--------------------------------------------|
G|--------------------------------------------|
D|--44444--22222--00000--22222-44444444444444-|x3
A|--44444--22222--00000--22222-44444444444444-|
E|--44444--22222--00000--22222-44444444444444-|

i ezto lo tocan hazta terminar la canción!!

e|-----------------|     |----------------|
B|-----------------|     |----------------|
G|-----------------|     |----------------|
D|--2h44--2-4-2-4--|     |--2-4-2-4-5-2-4-|
A|--2h44--2-4-2-4--|     |--2-4-2-4-5-2-4-|
E|--2h44--2-4-2-4--|     |--2-4-2-4-5-2-4-|


eso es todo lo q pude aser el bajo es igual solo token la 1era cuerda de las quintas en 
nota y despues saken a oido los tiempos

AVER SI PUEDEN PONERLA EN EL GUITAR PRO, SERIA MAS FACIL

BEUNO CUIDENSE ATTE RODRIGO DESDE LA PAZ - BOLIVIA
Tap to rate this tab
# A B C D E F G H I J K L M N O P Q R S T U V W X Y Z