Song name
# A B C D E F G H I J K L M N O P Q R S T U V W X Y Z

Moving Units - Available tab

Available
Moving Units
Dangerous Dreams

Intro, Pre Verse
E|----------------------------------------------------------------|
B|----------------------------------------------------------------|
G|----------------------------------------------------------------|
D|----------------------------------------------------------------|
A|-------12"\--------12"\--------12"\--------14"\-----------------|
E|2-2x-2------2-2x-2------2-2x-2------2-2x-2----------------------|
  D UD D

Verse "i am filled with righteous anger etc"
E|17----0--17---0---17----0--17-17-14-13----|
B|14---0---14----0--14---0---14----------17-|
G|----0--------0--------0-------------------|
D|------------------------------------------|
A|------------------------------------------|
E|------------------------------------------|

Chorus

E|-9---9---7---7------14---17-----17----17--17-|
B|--9---9---7---7-------14---14-----14----14---|
G|9---9---7---7---/14----------14-----14-------|
D|---------------------------------------------|
A|---------------------------------------------|
E|---------------------------------------------|

Bridge
E|9-9xx-17-15-14--9-9xx-17-15-14--9-9xx-17-15-14--9-9xx-19-19-|
B|9-9xx-17-15-14--9-9xx-17-15-14--9-9xx-17-15-14--9-9xx-19-19-|
G|9-9xx-17-15-14--9-9xx-17-15-14--9-9xx-17-15-14--9-9xx-19-19-|
D|------------------------------------------------------------|
A|------------------------------------------------------------|
E|------------------------------------------------------------|

Outro before playing the chorus slowly
E|9-999-99999999-9-999-xx-12-9-12-|
B|------97979797-------xx---------|
G|------99999999------------------|
D|--------------------------------|
A|--------------------------------|
E|--------------------------------|
Tap to rate this tab
 
# A B C D E F G H I J K L M N O P Q R S T U V W X Y Z