Song name
# A B C D E F G H I J K L M N O P Q R S T U V W X Y Z

Movits - Swing For Hyresgastforeningen tab

Ska försöka göra en liten tab på en låt jag inte kunde hitta ;) listade ut tonerna lite snabbt!
Ima try to make a little tab on a song I couldn't find ;) figured the notes a little quick!
enjoy

E|-----5--------------------|
B|-----7--------------------|
G|-----------5-----6--5--5--|
D|--4--------6-----6--5--5--| x3
A|--------4-----5-----4-----|
E|--------------------------|

Efter tredje gången detta:
After the third time play this:

E|--------------------|
B|-----7--7-----6--6--|
G|-----7--7-----6--6--|
D|--------------------|
A|--5--------4--------|
E|--------------------|

        Hoppas ni gillar det!:)
Tap to rate this tab
# A B C D E F G H I J K L M N O P Q R S T U V W X Y Z