Song name
# A B C D E F G H I J K L M N O P Q R S T U V W X Y Z

Movits - Huvudet Bland Molnen tab

-----------------------------------------------------------------------------
                        HUVUDET BLAND MOLNEN - MOVITS!
-----------------------------------------------------------------------------
Tabbed by: fiskb33N
E-mail: tobias.green@hotmail.se



Tuning: Standard

Hoppas den här taben och ackorden funkar, låter bra i mina öron i alla fall
Orkade inte lyssna igenom låten just nu man har  för mig att den spelas  likadant rakt igenom

Texten finns även att hitta med dem andra på movits.se

Enjoy! :)

e|--------------------------------------------------------------------------|
B|--------------------------------------------------------------------------|
G|--------------------------------------------------------------------------|
D|--------------------------------------------------------------------------|
A|-------------------------------------------------------1------------------|
E|--3----10----11----10----8----10----8----5----1----1--------1----3--------|

Jag gillar att spela såhär

e|--------------------------------------------------------------------------|
B|--------------------------------------------------------------------------|
G|-------------------------------------------------------3------------------|
D|--5----12----13----12----10---12----10---7----3----3--------3----5--------|
A|-------------------------------------------------------1------------------|
E|--3----10----11----10----8----10----8----5----1----1--------1----3--------|

Lyssna på låten för att höra rytmen och även hur det sista F:et ska klämmas in innan man 
börjar om på Gm igen!:)

|Gm   |Eb   |F    |Gm   F|

vers 1:

Maaaan, hur kan man vara så självupptagen
en liten djävul på axxeln
som om jag inte ens själv kunde göra valen
sitter fast i zeitgeisten
självklart hamnar du emellan
drömmarna du drömmer e dina
mer sällan är tiden vi spenderar tillsammans helgkvällar
mellan veckor på turneer o att sitta hemma ensam
men ja gissar det e showbizz baby
var ditt eget val att skaffa vardag med Elvis
låter lite sjävliskt
har svårt att stanna upp
framtiden e oändlig


Ref:

Har nog Huvudet bland molnen
som huden träffar nålen
inget kunde nå mig
som vore jag en fågel
men inte känner hur det blåser



är nog fångad i mig själv fast jag inte ser det
är nog fångad i det än fast jag inte ser det
är nog fångad i det än fast jag inte ser det
är nog fångad i mig själv fast jag inte ser det




Vers 2:

Som jag saknade alternativ
till någonting annat än ett fågelperspektiv
huvudet i sanden hoppas stormen drar förbi
duckar för konflikter
high on life
allt för rätt för rädd för att bli nykter
o slå i botten hårt
inte som man inte undrar hur länge det kommer gå
300 dagar iväg från hemifrån
o varenda gång vi snackar är det jag som lägger på
men ja gissar det e showbizz baby
vi vet ju båda två att Graceland e i Memphis
Tennesse
kan inte lägga av
ännu mindre låta bli


Ref:

Har nog Huvudet bland molnen
som huden träffar nålen
inget kunde nå mig
som vore jag en fågel
men inte känner hur det blåser


är nog fångad i mig själv fast jag inte ser det
är nog fångad i det än fast jag inte ser det
är nog fångad i det än fast jag inte ser det
är nog fångad i mig själv fast jag inte ser det


Vers 3:

Har du nånsin känt dig odödlig
som om ingenting alls e omöjligt
som om allting annat e onödigt
vinden i fejjan, skygglappar
- blunda för rädslan
att vi nått vårat Waterloo
Napoleon dynamite slutstation
e som krascha in i väggen eller hoppa från bro
under skrik ifrån publiken , en perfekt recension
men ja gissar det e showbizz baby
har inget i kontraktet som behandlar
stensättning
titta bara på Elvis,
men Orrgränd, blir nog knappast någon utställning



Ref:

Har nog Huvudet bland molnen
som huden träffar nålen
inget kunde nå mig
som vore jag en fågel
men inte känner hur det blåser


är nog fångad i mig själv fast jag inte ser det
är nog fångad i det än fast jag inte ser det
är nog fångad i det än fast jag inte ser det
är nog fångad i mig själv fast jag inte ser det
Tap to rate this tab
 
# A B C D E F G H I J K L M N O P Q R S T U V W X Y Z