Song name
# A B C D E F G H I J K L M N O P Q R S T U V W X Y Z

Moxy - Cant You See Im A Star tab

Tabbed By: Graham Johnson

Great song by the canadian rockers with one of my favorite guitarist Tommy Bolin. 
Bolin also played 
with such bands as the James Gang, Deep Purple. less famous Zephyr and sat in with Moxy for an
album which produced great songs like Sail On Sail Away and Can't You See I'm A Star.

Intro/ Verse:
e-----------------|---------------|
b-----------------|---------------|
g-----------------|---------------|
d-------------3---|-3-3--3--------|
a--------3--5-----|--------1--3---|
E-3-3--6----------|-------------3-|
                                          Your lookin' all right yeah,
                                                                        Let's make it tonight.

Chorus:
e----------------------|--------------------------|
b----------------------|--------------------------|
g-3/5-3-5---3-5--3-5-3-|-3/5-3-5---3-5--3-5-3-----|
d-3/5-3-5---3-5--3-5-3-|-3/5-3-5---3-5--3-5-3---3-|
a-1/3---3-----3----3-1-|-1/3---3-----3----3-1---3-|
E----------------------|------------------------1-|

Bridge:
e-----------------------------|
b-----------------------------|
g-----------------------------|
d-----------------------------|
a-------0-0-0-1-1-1-3-3-3-5---|
E-3-3-3-----------------------|

Build up to Solo:
e-----------------|---------------------|
b-----------------|---------------------|
g-----------------|-------------------7-|
d-----------------|-------------------7-|
a-------3-----3---|-------3-----3-----5-|
E-3-5-5---5-5---5-|-3-5-5---5-5---5-----|

Sorry no solo, I only have my acoustic and my computer. Hope this gets you on your way!
Tap to rate this tab
# A B C D E F G H I J K L M N O P Q R S T U V W X Y Z