Song name
# A B C D E F G H I J K L M N O P Q R S T U V W X Y Z

Mozart Season - Prophicies Of Kodak tab

regular tuning..this is the lead guitar part after the sceaming


e-8-0-7-0-8-0-10-0-8-0-7-0-8-0-7-0-5-0-7-0-8-0-7-0-5-0-7-0-8-0-7-|
b----------------------------------------------------------------|
g----------------------------------------------------------------|
d----------------------------------------------------------------|
a----------------------------------------------------------------|
E----------------------------------------------------------------|

e-3-0-5-0-7-0-5-0-3-0-5-0-7-0-5--------------------|
b---------------------------------3h5-5-5--3h5-5-5-|
g--------------------------------------------------|
d--------------------------------------------------|
a--------------------------------------------------|
E--------------------------------------------------|

e-8-0-7-0-8-0-10-0-8-0-7-0-8-0-7-0-5-0-7-0-8-0-7-0-5-0-7-0-8-0-7-|
b----------------------------------------------------------------|
g----------------------------------------------------------------|
d----------------------------------------------------------------|
a----------------------------------------------------------------|
E----------------------------------------------------------------|

e-3-0-5-0-7-0-5-0-3-0-5-0-7-0-5--------------------|
b---------------------------------3h5-5-5--3h5-5-5-|
g--------------------------------------------------|
d--------------------------------------------------|
a--------------------------------------------------|
E--------------------------------------------------|
Tap to rate this tab
 
# A B C D E F G H I J K L M N O P Q R S T U V W X Y Z