Guitaretab - guitar tabs
Song name
# A B C D E F G H I J K L M N O P Q R S T U V W X Y Z

Mozart Season - Midnight Train To Bellevue tab

DROP C

e----------8---------------8----------------|
B--5-6-5-6---6-5-6-5-6-5-6---6-5-6----------|
g-------------------------------------------|  4 times
d-------------------------------------------|
a-------------------------------------------|
D-------------------------------------------|

then
[ Tab from: http://www.guitaretab.com/m/mozart-season/78933.html ]
e--5-----------5----------------------------|
b-----6--5--6-----6-------------------------|
g-------------------------------------------|
d-------------------------------------------|
a-------------------------------------------|
D-------------------------------------------|

e----------8---------------8----------------|
B--5-6-5-6---6-5-6-5-6-5-6---6-5-6----------|
g-------------------------------------------|
d-------------------------------------------|
a-------------------------------------------|
D-------------------------------------------|

e----------8--------5-------5---------------|
B--5-6-5-6---6-5-6----6-5-6---6-5-6---------|
g-------------------------------------------|
d-------------------------------------------|
a-------------------------------------------|
D-------------------------------------------|
Related for Midnight Train To Bellevue tab
Advertisement will be closed in 10 seconds