Song name
# A B C D E F G H I J K L M N O P Q R S T U V W X Y Z

Mozart Season - Her Only Medicine tab

mozart season...again

verse(both guitars)along with piano
e---------------------------------------------------------|
b---------------------------------------------------------|
g---------------------------------------------------------|
d---10-10-10-10--10-10-10-10------------------------------|
a--8--8--8--8---8--8--8--8--------------------------------|
d-0--0--0--0---8--8--8--8---------------------------------|
        (its cold outside tonight, and where is she)
play til chorus


              THE MIRRORRRRR AGAAIIIIIN
CHORUS
(guitar one)
e---------------------------------------------------------|
b---------------------------------------------------------|
g---------------------------------------------------------|
d--8-8-8-8-8-8-8-8-8-8-8-8-8-8-8-8-8-8-8------------------|
a--8-8-8-8-8-8-8-8-8-8-8-8-8-8-8-8-8-8-8------------------|
d--8-8-8-8-8-8-8-8-8-8-8-8-8-8-8-8-8-8-8------------------|
(second guitar)
e---------------------------------------------------------|
b---------------------------------------------------------|
g--10(x's16)---9(x's8)---12(x's8)-------------------------|
d---------------------------------------------------------|
a---------------------------------------------------------|
d---------------------------------------------------------|
(first guitar)
e---------------------------------------------------------|
b---------------------------------------------------------|
g---------------------------------------------------------|
d-0-0-0---------------------------------------------------|
a-0-0-0---------------------------------------------------|
d-0-0-0---------------------------------------------------|
(second guitar)                 (both 4 times till singing)
e---------------------------------------------------------|
b---------------------------------------------------------|
g---------------------------------------------------------|
d-------10p9----------------------------------------------|
a------------10*------------------------------------------|
d---------------------------------------------------------|

verse again.
chorus again.

CHORUS
(guitar one)
e---------------------------------------------------------|
b---------------------------------------------------------|
g---------------------------------------------------------|
d--8-8-8-8-8-8-8-8-8-8-8-8-8-8-8-8-8-8-8------------------|
a--8-8-8-8-8-8-8-8-8-8-8-8-8-8-8-8-8-8-8------------------|
d--8-8-8-8-8-8-8-8-8-8-8-8-8-8-8-8-8-8-8------------------|
(second guitar)
e---------------------------------------------------------|
b---------------------------------------------------------|
g--10(x's16)---9(x's8)---12(x's8)-------------------------|
d---------------------------------------------------------|
a---------------------------------------------------------|
d---------------------------------------------------------|
(first guitar)
e---------------------------------------------------------|
b---------------------------------------------------------|
g---------------------------------------------------------|
d-0-0-0---------------------------------------------------|
a-0-0-0---------------------------------------------------|
d-0-0-0---------------------------------------------------|
(second guitar)                 (both 4 times till singing)
e---------------------------------------------------------|
b---------------------------------------------------------|
g---------------------------------------------------------|
d-------10p9----------------------------------------------|
a------------10*------------------------------------------|
d---------------------------------------------------------|
          (NOT LIKE THIIIIIISS, NOT LIKE THIIIIISS)


(breakdown)
Cymbols to slide down
(both guitars)
e---------------------------------------------------------|
b---------------------------------------------------------|
g--------10-------10---------9-----------9----------------|
d--0-0-0--7-0-0-0--7--0-0-0--7----0-0-0--7----------------|
a--0-0-0----0-0-0-----0-0-0-------0-0-0-------------------|
d--0-0-0----0-0-0-----0-0-0-------0-0-0-------------------|
do some sliding also.

back to chorus.
and then breakdown again.


AIM - CyaNidexLandMine
email - dakrayzieaznboi@msn.com
Tap to rate this tab
# A B C D E F G H I J K L M N O P Q R S T U V W X Y Z