Song name
# A B C D E F G H I J K L M N O P Q R S T U V W X Y Z

Mozart Season - Streetlight Contagious tab

Highlighted       Show chord diagrams
Mozart Season
Streetlight Contagious
Submitted by: paramore_fans@yahoo.com

Key: D

Tuning: Standard EADGBe

Chords used:
D -    xx0232
A -    x02220
Bm -   x24432
G -    320033
Em -   022000
D/F# - 2x023x
A/C# - x476xx


Intro:
e|-----2---0h2---2-----2---5p0---2-|
B|-3-3---3-----3---3-3---3-----3---|
G|---------------------------------|
D|---------------------------------| x6
A|---------------------------------|
E|---------------------------------|


Bass: D--G x3 D


Verse 1:
   G
Broken glass and red lights flash I can
[If sunrise, sunrise is your muse than I can]
D              Em      A
  See the city burning for miles
G
  Run back for all you can
[If secrets, secrets never change]
D          A
  Then I知 easy to replace
   G
So come on baby its okay to
[I値l be the last thing on your mind]
D                      Em    A
  Say the words you池e dying to say
    G
I知 clocking out for this one
[I知 falling, falling faster than you'll ever run]
D          A                       Em(hold) D/F# G
  And I値l promise to show you the way


Refrain:
   G
So call me on all my lies
D          Em   A
Feed me on resignation
G
It's all a game
        D
til you break a heart
A                     Em    D/F# G
  Then it's a battle station


Chorus:
   D                         A/C#
My tongue is still guilty if there's
G                             D
One thing about me that still changes you
   A/C#   G
My empty streets still prove
            Em
That you'll never second guess me
     G                             Em
Never stop to undress me with your eyes
                  G
We might win this time


Verse 2:
   G
So choose the place
[I値l choose the time]
And pretty soon
[You値l realize]
     D                          Em
This trace of lipstick down his back
[Down his back]
   A
Is all we had
G
Over and over we lie
[So here we lie]
Swimming in sheets of white
[Bedsheets of white]
D            A
  One day in this sea
          Em(hold) D/F# G
you値l be drowning with me


(Repeat Refrain and Chorus)


Interlude: Bm-G-A--

Guitar 2:
        Bm                  G                         A
e|-5-2-----3-2-----|-3-2-----3-2------|-5-2-----3-2-----3-2-----3-2-----|
B|-----3-3-----3-3-|-----3-3------3-3-|-----3-3-----3-3-----3-3-----3-3-|
G|-----------------|------------------|---------------------------------|
D|-----------------|------------------|---------------------------------|
A|-----------------|------------------|---------------------------------|
E|-----------------|------------------|---------------------------------|


Bridge:
Bm           G                  A
  I know you thought that I was perfect
Bm        G                 A
  But I'm not sure now that I am worth it
Bm        G                A
  With my back against the wall
I'll be waiting for your call
Bm       G        A
  To set me free again


Growl: Bm---G x4


(Repeat Chorus twice)
Tap to rate this tab
# A B C D E F G H I J K L M N O P Q R S T U V W X Y Z