Song name
# A B C D E F G H I J K L M N O P Q R S T U V W X Y Z

Mozart Season - Midnight Train To Bellvue tab

Intro

e----------8----------------8---------------8---------------8---------------8-|
b-5-6-5-6-----6-5-6-5-6-5-6---6-5-6-5-6-5-6---6-5-6-5-6-5-6---6-5-6-5-6-5-6---|
g-----------------------------------------------------------------------------|
d-----------------------------------------------------------------------------|
a-----------------------------------------------------------------------------|
d-----------------------------------------------------------------------------|


e---------------8-------5------------5----------------------------------------|
b-6-5-6-5-6-5-6---6-5-6---6---5--6-------6----5-------------------------------|
g-----------------------------------------------------------------------------|
d-----------------------------------------------------------------------------|
a-----------------------------------------------------------------------------|
d-----------------------------------------------------------------------------|
then you rest while he screams, then you do it again,only add one more note on the 8th fret

on the E-string

e-----------------------------------------------------------------------------|
b-----------------------------------------------------------------------------|
g-----------------------------------------------------------------------------|
d-----------------------------------------------------------------------------|
a----0-0----0-0----0-0----0-0----0-0-0-0----8-8----8-8----10-10----10-10------|
d----0-0----0-0----0-0----0-0----0-0-0-0----8-8----8-8----10-10----10-10------|
     * *    * *    * *    * *    * * * *    * *    * *    *  *     *  *


e--------------------------1-0-----------------------1-3-1--------------------|
b--5/1--1-3--1-3--1-3--1-3-----1--1-3--1-3--1-3--1-3--------------------------|
g-----------------------------------------------------------------------------|
d-----------------------------------------------------------------------------|
a-----------------------------------------------------------------------------|
d-----------------------------------------------------------------------------|

e---------------------1-0-----------------------1-3-1-------------------------|
b--1-3--1-3--1-3--1-3-----1--1-3--1-3--1-3--1-3-------------------------------|
g-----------------------------------------------------------------------------|
d-----------------------------------------------------------------------------|
a-----------------------------------------------------------------------------|
d-----------------------------------------------------------------------------|

e----------8----------------8---------------8---------------8-----------------|
b-5-6-5-6-----6-5-6-5-6-5-6---6-5-6-5-6-5-6---6-5-6-5-6-5-6---6-5/1-----------|
g-----------------------------------------------------------------------------|
d-----------------------------------------------------------------------------|
a-----------------------------------------------------------------------------|
d-----------------------------------------------------------------------------|

e---------------------1-0-----------------------1-3-1-------------------------|
b--1-3--1-3--1-3--1-3-----1--1-3--1-3--1-3--1-3-------------------------------|
g-----------------------------------------------------------------------------|
d-----------------------------------------------------------------------------|
a-----------------------------------------------------------------------------|
d-----------------------------------------------------------------------------|

e----------8----------------8---------------8---------------8-----------------|
b-5-6-5-6-----6-5-6-5-6-5-6---6-5-6-5-6-5-6---6-5-6-5-6-5-6---6-5-------------|
g-----------------------------------------------------------------------------|
d-----------------------------------------------------------------------------|
a-----------------------------------------------------------------------------|
d-----------------------------------------------------------------------------|

e-----------------------------------------------------------------------------|
b--------------8--8--8--------------------------------------------------------|
g--------------11-11-11-------------------------------------------------------|
d-----------------------------------------------------------------------------|
a---0---0--0------------------------------------------------------------------|
d---0---0--0------------------------------------------------------------------|
    *	*  *
(it may not sound right, but I think it sounds cooler than the harmonic cords, so if you

wanna learn those do it yourself)
do that 8 times.then do this again


e----------8----------------8---------------8---------------8---------------8-|
b-5-6-5-6-----6-5-6-5-6-5-6---6-5-6-5-6-5-6---6-5-6-5-6-5-6---6-5-6-5-6-5-6---|
g-----------------------------------------------------------------------------|
d-----------------------------------------------------------------------------|
a-----------------------------------------------------------------------------|
d-----------------------------------------------------------------------------|


e---------------8-------5--------------5--------------------------------------|
b-6-5-6-5-6-5-6-----6------6---5---6-------6----5-----------------------------|
g-----------------------------------------------------------------------------|
d-----------------------------------------------------------------------------|
a-----------------------------------------------------------------------------|
d-----------------------------------------------------------------------------|

e-----------------------------------------------------------------------------|
b----------5--6--8--6--5--6---------5--6--5--------5--6--3--------------------|
g-----------------------------------------------------------------------------|
d-----------------------------------------------------------------------------|
a-----0-0--------------------0--0-0-----------0-0-----------------------------|
d-----0-0--------------------0--0-0-----------0-0-----------------------------|

e----------------------------------------------------------8------------------|
b----------5--6--8--6--5--6-----------5--6--5--------5--6---------------------|
g-----------------------------------------------------------------------------|
d-----------------------------------------------------------------------------|
a-----0--0--------------------0--0-0-----------0-0----------------------------|
d-----0--0--------------------0--0-0-----------0-0----------------------------|

and I don't wanna find the pinched harmonics, but it switches from low to high or high to

low, so if you wanna find it, it's probably on like 9 on the dropped d and 13 on high e,

but I'm not sure

tell me how it is..brandon369852@aim.com
Tap to rate this tab
# A B C D E F G H I J K L M N O P Q R S T U V W X Y Z