Song name
# A B C D E F G H I J K L M N O P Q R S T U V W X Y Z

Mozart Wolfgang Amadeus - The Magic Flute tab

-----------------------------------------------------------------------
			The Magic Flute - Mozart
-----------------------------------------------------------------------
Tabbed by: Travis Wong
Email: travis_wong@hotmail.com

4/4 Time, Key of D

Tuning: EADGBe (Standard)

e|---------------|----------2---------|------0---3--------------------|
B|---------------|------3-------------|-------------------------------|
G|---------2--0--|--------------2-----|--0-----------0----------------|
D|---------------|--4--------------4--|-----------------4-------------|
A|---------------|--------------------|-------------------------------|
E|---------------|--------------------|-------------------------------|

e|----------0------|-----2-----2-------------|-------------2----------|
B|------2-------2--|--3-----3------3---------|---------3--------------|
G|-----------------|-------------------2--0--|------2----------2------|
D|--2--------------|-------------------------|--4-----------------4---|
A|-----------------|-------------------------|------------------------|
E|-----------------|-------------------------|------------------------|

e|---------0---3---------|-----------------------|------2-------------|
B|------0----------0-----|---------3----------2--|--3-------3---------|
G|--0-----------------0--|-----2----------2------|--------------2--0--|
D|-----------------------|--4----------2---------|--------------------|
A|-----------------------|-----------------------|--------------------|
E|-----------------------|-----------------------|--------------------|

e|----------2---------|------0---3---------|----------0---------------|
B|------3-------------|--------------------|------2-------2-----------|
G|--------------2-----|--0-----------0-----|--------------------------|
D|--4--------------4--|-----------------4--|--2-----------------------|
A|--------------------|--------------------|--------------------------|
E|--------------------|--------------------|--------------------------|

e|-----2-----2-------------|-------------2----------|--------0---3----|
B|--3-----3------3---------|---------3--------------|-----0--------0--|
G|-------------------2--0--|------2----------2------|--0-------------0|
D|-------------------------|--4-----------------4---|-----------------|
A|-------------------------|------------------------|-----------------|
E|-------------------------|------------------------|-----------------|

e|---------2----------0--|------2-------------|----------0------------|
B|-------3----------2----|--3-------3---------|------2----------------|
G|-----2----------2------|--------------2--0--|-----------------0-----|
D|--4----------2---------|--------------------|--2-----------2--------|
A|-----------------------|--------------------|-----------------------|
E|-----------------------|--------------------|-----------------------|

e|----------2---------|------0---3---0--|-----2-----2---5-------------|
B|------3-------------|-----------------|--3-----3--------------------|
G|-----------------2--|--0--------------|----------------------0------|
D|--4-----------4-----|-----------------|-------------------4---------|
A|--------------------|-----------------|-----------------------------|
E|--------------------|-----------------|-----------------------------|

e|----------2---------|----------3---------|--------------------------|
B|------3-------------|--0---3-------0-----|---------3----------2-----|
G|--2-----------2--0--|-----------------0--|-----2----------2---------|
D|--------------------|--------------------|--4----------2------------|
A|--------------------|--------------------|--------------------------|
E|--------------------|--------------------|--------------------------|

e|------2-------------|---------------0---------|---------------2-----|
B|--3-------3---------|--------2----------------|--------3----------2-|
G|--------------2--0--|-----2-----2----------2--|-----2-----2-----4---|
D|--------------------|--2----------------2-----|--4------------------|
A|--------------------|-------------------------|---------------------|
E|--------------------|-------------------------|---------------------|

e|--------0------5------0--|-----2-----2---5---------|-----------3----|
B|-----2-----2-------2-----|--3-----3----------------|-----3-------0--|
G|--0----------------------|----------------------0--|--2-----0------0|
D|-------------------------|-------------------4-----|----------------|
A|-------------------------|-------------------------|----------------|
E|-------------------------|-------------------------|----------------|

e|-----------2-----------0--|-----------2-----------------------------|
B|--------3-----------2-----|--3-----3-----3--------------------------|
G|-----2-----------2--------|-----2-----------2--0--------------------|
D|--4-----------2-----------|-----------------------------------------|
A|--------------------------|-----------------------------------------|
E|--------------------------|-----------------------------------------|

e|-----------2-----------0--|-------------------|---10--10--10--------|
B|--------3-----------2-----|---3---------------|---6---6---6---------|
G|-----2--------0--2--------|---------2---------|---7---7---7---------|
D|--4-----------------------|---------------0---|---7---7---7---------|
A|--------------------------|-------------------|---------------------|
E|--------------------------|-------------------|---------------------|
Tap to rate this tab
# A B C D E F G H I J K L M N O P Q R S T U V W X Y Z