Song name
# A B C D E F G H I J K L M N O P Q R S T U V W X Y Z

Mozes And The Firstborn - Gimme Some tab

-------------------------------------------------------------------------------
                             GIMME SOME - Mozes & the Firstborn
-------------------------------------------------------------------------------
Tabbed by: Gijs Swennen
E-mail: gijs200@gmail.com

Band website: www.mozesandthefirstborn.com
Band Facebook: https://www.facebook.com/mozesandthefirstborn

Tuning: Standard (EADGBE)

Main riff:
e|---------------------------------------------------------------------------|
B|--7-----5------------------------------------------------------------------|
G|----6-6---6-6-6-6-4-6-6-6-4-6-6-6------------------------------------------|
D|---------------------------------------------------------------------------|
A|---------------------------------------------------------------------------|
E|---------------------------------------------------------------------------|

Rythym guitar:
e|---------------------------------------------------------------------------|
B|---------------------------------------------------------------------------|
G|--5--2--3--8//10--10--10-10-----5--2--3--8//10--10--10-10------------------|
D|--7--3--4--9//11--11--11-11-----7--3--4--9//11--11--11-11------------------|
A|--7--3--4--9//11--11--11-11-----7--3--4--9//11--11--11-11------------------|
E|--5--0--2--7//9---9---9--9----0h5--0--2--7//9---9---9--9-------------------|


Pre-chorus (Gimme some, gimme some...)
Lead guitar w/ fuzz:
e|---------------------------------------------------------------------------|
B|---------------------------------------------------------------------------|
G|---------------------------------------------------------------------------|
D|--7--6/7--11--9/11-9--5--6/7--11-11-11-11--9-9-9-9-------------------------|
A|--7--6/7--11--9/11-9--5--6/7--11-11-11-11--9-9-9-9-------------------------|
E|--5--4/5--9---7/9--7--7--4/5--9--9--9--9---7-7-7-7-------------------------|

Rythym guitar:

A C# A C# B

Lead guitar plays, instead of main riff, in 2nd verse same chords as the rythym guitar.

Solo:
e|---------------------------------------------------------------------------|
B|---------------------------------------------------------------------------|
G|-10b---------10b---------10b---------10b--------------------9h11-11b-11b-9-|
D|------11-9-11-----11-9-11-----11-9-11-----11-9-11-------9h11---------------|
A|---------------------------------------------------9h11--------------------|
E|---------------------------------------------------------------------------|

e|---------------------------------------------------------------------------|
B|--------------------13-----------------------------------------------------|
G|-----------9h11-11b----11-9------------------------------------------------|
D|------9h11-------------------11~-------------------------------------------|
A|-9h11----------------------------------------------------------------------|
E|---------------------------------------------------------------------------|


************************************

| /   slide up
| \   slide down
| h   hammer-on
| p   pull-off
| ~   vibrato
| +   harmonic
| x   Mute note
| b   Bend
| pb  Pre-bend
| br  Bend release
| pbr Pre-bend release
| brb Bend release bend

************************************
Tap to rate this tab
# A B C D E F G H I J K L M N O P Q R S T U V W X Y Z