Song name
# A B C D E F G H I J K L M N O P Q R S T U V W X Y Z

Mozes And The Firstborn - I Got Skills tab

no capo

intro
A                     A               D                    E
e-----------0--------|--------------|---------0-----------|-----0-0-0-0-0-0-|
B----2--2-3---2h3p2--|----2--2-3-2--|----3--3---3-2h3p2-3-|---0-2-0-2-0-2-0-|
G----2--------------2|----2--------2|----2--------------2-|---0-1-1-1-1-1-1-|
D----2---------------|----2---------|-0--0--------------0-|---1-2-2-2-2-2-2-|
A-0------------------|-0------------|---------------------|-2---2-2-2-2-2-2-|
E--------------------|--------------|---------------------|-0---0-0-0-0-0-0-|

Chorus & verse:

A D E

Solo:

e----8----8----8----|----8---8----8----|----8-10-10b11b10-8-----------------|
B-10---10---10---10-|-10---10--10---10-|-10------------------10-------------|
G-------------------|------------------|------------------------------------|
D-------------------|------------------|------------------------------------|
A-------------------|------------------|------------------------------------|
E-------------------|------------------|------------------------------------|

e-------------------------|----8----8----8----|----8----8----8--------------|
B-----8-----8-----8-----8-|-10---10---10---10-|-10---10---10---10-----------|
G-7h9---7h8---7h8---7h8---|-------------------|-----------------------------|
D-------------------------|-------------------|-----------------------------|
A-------------------------|-------------------|-----------------------------|
E-------------------------|-------------------|-----------------------------|

e-------------------------|
B-10-8--------------------|
G------9-7----------------|
D-----------7-10-7-7------|
A-------------------------|
E-------------------------|
Tap to rate this tab
# A B C D E F G H I J K L M N O P Q R S T U V W X Y Z