Song name
# A B C D E F G H I J K L M N O P Q R S T U V W X Y Z

Mr Airplane Man - Suns Going Down tab

This link shows they are signed to Sympathy For The Record Industry:
http://tinyurl.com/y3gc933

Sun's Going Down by Mr. Airplane Man  (originally a tune by The Outsiders)

4-16-10

Standard tuning
Capo on 1, all tab/chords relative


Intro/solo:
e|-----------------------------------------------------|
B|------1-3b-3b-3b-1---------1-3b-3b-3b-1--------------|
G|--2-2--------------2-0-2-2--------------2-0----------|
D|-----------------------------------------------------|
A|-----------------------------------------------------|
E|-----------------------------------------------------|

    A  D  C  G (x2)

A    D   C   G      A    D  C  G
Su - u - un's going down
    A    D   C     G          A       D  C  G
Too so - o - oon the darkness comes
  Dm        Am          Dm    Am
I wish that today would never end
         Dm        Am     G       A     D  C  G
'Cause tomorrow, tomorrow I'll be gone

(same chords for the next verse)

Su - u - un's going down

Mo - o - oon's risin' in the sky

I wish that today would never end

'Cause tomorrow, tomorrow ooh I will cry

Solo: 
e|----------------------|
B|------1-3b-3b-3b-1----|
G|--2-2--------------2-0|
D|----------------------| (x4)
A|----------------------|
E|----------------------|

      Dm    Am    Dm    Am   Dm    Am   G   A  D  C  G

A    D   C   G      A    D  C  G
Su - u - un's going down
A  D        C   G        A     D  C  G
My love for you, it will last
  Dm        Am          Dm    Am
I wish that today would never end
         Dm              Am     G        A     D  C  G
'Cause tomorrow, I'll be dreamin' of the past
       A     D   C
And of you
        G           A     D  C 
I'll be dreamin' of you
       G      A     D   C
'Cause I love you
    G          A    D   C
Yes I love you so
    G          A
Yes I love you so
Tap to rate this tab
# A B C D E F G H I J K L M N O P Q R S T U V W X Y Z