Guitaretab - guitar tabs
Song name
# A B C D E F G H I J K L M N O P Q R S T U V W X Y Z

Mr Big - Nothing But Love tab

----------------------------------------------------|
----------------------------------------------------|
-11fb-11fb-11fb-11fb-11fb--------------------9-9----|
-----------------------------------------9s11----11-|
----------------------------------------------------|
----------------------------------------------------|

------------------------------------------------16fb---14----------14----------------|
------------------------------------------16fb------------17-16-17-------------------|
-11fb-11fb-11fb-11fb-11fb--9----------14------------------------------16-14-16-14s13-|
-----------------------------12h14-16------------------------------------------------|
-------------------------------------------------------------------------------------|
-------------------------------------------------------------------------------------|

------------------|
------------------|
-------------16fb-|
-16-14-13-14------|
------------------|
------------------|
[ Tab from: http://www.guitaretab.com/m/mr-big/101914.html ]
--------------------------------------------------------------12-12----14fb-12----|
-9-10-9-10-9---9-10-9---9----------------------12-12----12h14-------14---------14-|
-9-----------9--------9----------9-9----9-11-9-------13---------------------------|
--------------------------7h9-11-----11-------------------------------------------|
----------------------------------------------------------------------------------|
----------------------------------------------------------------------------------|

-19fb(19-19-19-19-19~)--11-12-11----------11-12-14-16-14-12----12-16-17-19-17-16----16-17-19-22-|
---------------------------------14----14-------------------14-------------------17-------------|
------------------------------------14----------------------------------------------------------|
------------------------------------------------------------------------------------------------|
------------------------------------------------------------------------------------------------|
------------------------------------------------------------------------------------------------|
Related for Nothing But Love tab
×
Best way to learn
"Nothing But Love"