Song name
# A B C D E F G H I J K L M N O P Q R S T U V W X Y Z

Mr Big - Nothing But Love chords

                          Nothing But Love                                 

Mr. Big



     W                   S S S S S S S S S S Q.      
E||-------------------|--4---4---4---4---4---5------|
B||-------------------|--5---5---5---5---5---5------|
G||-------------------|--4---4---4---4---4---4------|
D||-------------------|-----------------------------|
A||-------------------|--7---------------L---0------|
E||-------------------|-----------------------------|


  S S S S S S S S S S Q.        S S S S S S S S S S Q.      
--4---4---4---4---4---5------|--4---4---4---4---4---2------|
--5---5---5---5---5---5------|--5---5---5---5---5---5------|
--4---4---4---4---4---4------|--4---4---4---4---4---4------|
-----------------------------|-----------------------------|
--7---------------L---0------|--4---------------L---2------|
-----------------------------|-----------------------------|


  Q    E  H        E     S S S S S S S S S S Q.      
--2-------0--------L--|--4---4---4---4---4---5------|
--4----5--2--------L--|--5---5---5---5---5---5------|
--4-------4--------L--|--4---4---4---4---4---4------|
----------------------|-----------------------------|
--0----L--0--------L--|--7---------------L---0------|
----------------------|-----------------------------|


  S S S S S S S S S S Q.        S S S S S S S S S S Q.      
--4---4---4---4---4---5------|--4---4---4---4---4---2------|
--5---5---5---5---5---5------|--5---5---5---5---5---5------|
--4---4---4---4---4---4------|--4---4---4---4---4---4------|
-----------------------------|-----------------------------|
--7---------------L---0------|--4---------------L---2------|
-----------------------------|-----------------------------|


  Q    E  H        E     W                   W                 
--2-------0--------L--|-------------------|-------------------|
--4----5--2--------L--|-------------------|-------------------|
--4-------4--------L--|-------------------|-------------------|
----------------------|-------------------|-------------------|
--0----L--0--------L--|-------------------|-------------------|
----------------------|-------------------|-------------------|


  W                   W                   W                   W                 
-------------------|-------------------|-------------------|-------------------|
-------------------|-------------------|-------------------|-------------------|
-------------------|-------------------|-------------------|-------------------|
-------------------|-------------------|-------------------|-------------------|
-------------------|-------------------|-------------------|-------------------|
-------------------|-------------------|-------------------|-------------------|


                                          ^                            
  W                   W                   Q    S S E  S S S S S S S S  
-------------------|-------------------|--0------0--------------------|
-------------------|-------------------|--0----0---0--------5---4-----|
-------------------|-------------------|--4--------L------4-------4---|
-------------------|-------------------|--2--------L----4-----4-----4-|
-------------------|-------------------|--2--------L--0-------------L-|
-------------------|-------------------|--0--------L------------------|


           |-3-|                                                       
  S S E  S T T T E  S S S S S S E     S S S S S S S S S S S S S S S S  
---------2-0-2-0-------------------|----------4-------------0---2-----|
------0----------0----------1------|----5-------5---------3-------3---|
------------------------1-----1----|------6-------6-----2-----0-----2-|
----2-----------------1---1-----1--|--------6-------6-0-------------L-|
--------------------3-----------L--|--4-------------L-----------------|
--4--------------L-----------------|----------------------------------|


  S S S S S S S S S S E  E  E     Q    Q    S S S S S S E   
----------5-----------7--------|-------0----------7-L------|
--------5---5-----7------------|-------0--------------7----|
------2-------2-----9----8-----|-------4----6---8-------8--|
----2-----------------------9--|-------2------9------------|
--0-----------L-0--------------|---------------------------|
-------------------------------|--0------------------------|


           |-3-|                                                       
  S S E  S T T T E  S S S S S S E     S S S S S S S S S S S S S S S S  
---------2-0-2-0-------------------|----------4-------------0---2-----|
------0----------0----------1------|----5-------5---------3-------3---|
------------------------1-----1----|------6-------6-----2-----0-----2-|
----2-----------------1---1-----1--|--------6-------6-0-------------L-|
--------------------3-----------L--|--4-------------L-----------------|
--4--------------L-----------------|----------------------------------|


  S S S S S S S S S S E  E  E     W                   W                 
----------5-----------7--------|-------------------|-------------------|
--------5---5-----7------------|-------------------|-------------------|
------2-------2-----9----8-----|-------------------|-------------------|
----2-----------------------9--|-------------------|-------------------|
--0-----------L-0--------------|-------------------|-------------------|
-------------------------------|-------------------|-------------------|


  W                   W                   W                   W                 
-------------------|-------------------|-------------------|-------------------|
-------------------|-------------------|-------------------|-------------------|
-------------------|-------------------|-------------------|-------------------|
-------------------|-------------------|-------------------|-------------------|
-------------------|-------------------|-------------------|-------------------|
-------------------|-------------------|-------------------|-------------------|




  W                   W                   S S S S S S S S S S S S S S S S  
-------------------|-------------------|--2-------2-------2-------2-------|
-------------------|-------------------|----2-------2-------2-------2-----|
-------------------|-------------------|------3-------3-------3-------3---|
-------------------|-------------------|--------4-------4-------4-------4-|
-------------------|-------------------|----------------------------------|
-------------------|-------------------|----------------------------------|


  S S S S S S S S S S S S S S S S    S S S S S S S S S S S S S S S S  
--4-------4-------4-------4-------|--1-------1-------1-------1-------|
----4-------4-------4-------4-----|----2-------2-------2-------2-----|
------5-------5-------5-------5---|------1-------1-------1-------1---|
--------4-------4-------4-------4-|--------3-------3-------3-------3-|
----------------------------------|----------------------------------|
----------------------------------|----------------------------------|


  S S S S S S S S S S S S S S S S    S S S S S S S S S S S S S S S S  
--0-------0-------0-------0-------|----------------------------------|
----2-------2-------2-------2-----|--2-----2-L-2-----4-----4-L-4-----|
------1-------1-------1-------1---|----2---------2-----4---------4---|
--------2-------2-------2-------2-|------2---------4-----4---------7-|
----------------------------------|----------------------------------|
----------------------------------|----------------------------------|


  E  S S S S S S E  S S S S S S  
-----------------7--7-7-7-7-7-7-|
--5----5-L---5---7--7-7-7-7-7-7-|
--------------------------------|
-----7-----7---9----------------|
--------------------------------|
--------------------------------|


   Solo                                               
   S    S  S    S  S    S  S    S  E    E   S S S  S  
-----------------------------------------------------|
-----------------------------------------------------|
--11br--L-11br--L-11br--L-11br--L-11b~--------9-9----|
----------------------------------------9--11-----11-|
-----------------------------------------------------|
-----------------------------------------------------|


   S    S  S    S  S   S  S   S E   E   E  E   
----------------------------------------------|
----------------------12----------------------|
--11br--L-11br--L-11b--L-11br-L-9~---------9--|
------------------------------------9--11-----|
----------------------------------------------|
----------------------------------------------|


                                     |---3---|            
   Q       S   S  S  S  S   S  S  S  T   T   T   S  S  S  
----------16br-L-14-----------14-------------------------|
--12b~--------------17-16h-17----------------------------|
---------------------------------16-14h-16p-14p-13-------|
---------------------------------------------------16-14-|
---------------------------------------------------------|
---------------------------------------------------------|


   Q        E   E    Q    Q       S  S S S S  S S S E   E   S S S  S  
-------------------------------|-------------------------------------|
-------------------------------|--9-10-9---9-10-9---9~---------------|
---------------16b~--L----L----|---------9--------9-----------9-9----|
--13~----<>14------------------|------------------------9--11-----11-|
-------------------------------|-------------------------------------|
-------------------------------|-------------------------------------|


  E    S  S   S  S  S  S   S  S  S  S  S   S  S  S  
---------------------------------------------------|
----------------12-12--------17-17----19br-L-17----|
--9~--11p-9S-13-------13S-18-------18-----------18-|
---------------------------------------------------|
---------------------------------------------------|
---------------------------------------------------|


   Q      S   E    S   S   S  S  S  Q     
--19b----19b-19b--19b-19br-L-19-19~-L----|
-----------------------------------------|
-----------------------------------------|
-----------------------------------------|
-----------------------------------------|
-----------------------------------------|


                   |--3--|                    |--3--|                    |--3--|
   T   T   X  X  T S  S  S  T   T   X   X  T  S  S  S  T   T   X   X  T  S  S  S
--11h-12p-11p-9----9-11-12-14h-16p-14p-12----12-14-16-17h-19p-17p-16----16-17-19
----------------10------------------------14-------------------------17---------
--------------------------------------------------------------------------------
--------------------------------------------------------------------------------
--------------------------------------------------------------------------------
--------------------------------------------------------------------------------


  ^                                                                
                                          |-3-|                    
  Q    S S E  S S S S S S S S    S S E  S T T T E  S S S S S S E   
--0------0--------------------|---------2-0-2-0-------------------|
--0----0---0--------5---4-----|------0----------0----------1------|
--4--------L------4-------4---|------------------------1-----1----|
--2--------L----4-----4-----4-|----2-----------------1---1-----1--|
--2--------L--0-------------L-|--------------------3-----------L--|
--0--------L------------------|--4--------------L-----------------|


  S S S S S S S S S S S S S S S S    S S S S S S S S S S E  E  E   
----------4-------------0---2-----|----------5-----------7--------|
----5-------5---------3-------3---|--------5---5-----7------------|
------6-------6-----2-----0-----2-|------2-------2-----9----8-----|
--------6-------6-0-------------L-|----2-----------------------9--|
--4-------------L-----------------|--0-----------L-0--------------|
----------------------------------|-------------------------------|


  ^                                                                
                                          |-3-|                    
  Q    S S E  S S S S S S S S    S S E  S T T T E  S S S S S S E   
--0------0--------------------|---------2-0-2-0-------------------|
--0----0---0--------5---4-----|------0----------0----------1------|
--4--------L------4-------4---|------------------------1-----1----|
--2--------L----4-----4-----4-|----2-----------------1---1-----1--|
--2--------L--0-------------L-|--------------------3-----------L--|
--0--------L------------------|--4--------------L-----------------|


  S S S S S S S S S S S S S S S S    S S S S S S S S S S E  E  E   
----------4-------------0---2-----|----------5-----------7--------|
----5-------5---------3-------3---|--------5---5-----7------------|
------6-------6-----2-----0-----2-|------2-------2-----9----8-----|
--------6-------6-0-------------L-|----2-----------------------9--|
--4-------------L-----------------|--0-----------L-0--------------|
----------------------------------|-------------------------------|


  ^                                                                
                                          |-3-|                    
  Q    S S E  S S S S S S S S    S S E  S T T T E  S S S S S S E   
--0------0--------------------|---------2-0-2-0-------------------|
--0----0---0--------5---4-----|------0----------0----------1------|
--4--------L------4-------4---|------------------------1-----1----|
--2--------L----4-----4-----4-|----2-----------------1---1-----1--|
--2--------L--0-------------L-|--------------------3-----------L--|
--0--------L------------------|--4--------------L-----------------|


  S S S S S S S S S S S S S S S S    S S S S S S S S S S E  E  E   
----------4-------------0---2-----|----------5-----------7--------|
----5-------5---------3-------3---|--------5---5-----7------------|
------6-------6-----2-----0-----2-|------2-------2-----9----8-----|
--------6-------6-0-------------L-|----2-----------------------9--|
--4-------------L-----------------|--0-----------L-0--------------|
----------------------------------|-------------------------------|


  W                   W                   W                 
-------------------|-------------------|-------------------|
-------------------|-------------------|-------------------|
-------------------|-------------------|-------------------|
-------------------|-------------------|-------------------|
-------------------|-------------------|-------------------|
-------------------|-------------------|-------------------|


   Q    E   E   Q    E   S   S       H        E   E  S  S S  S  
-------------------------------|-------------------------------|
-----------12b--L----L--12b--L-|--<>12--------L----------------|
--------9----------------------|--------------------------9----|
--13---------------------------|---------------------9-11---11-|
-------------------------------|-----------------11------------|
-------------------------------|-------------------------------|


    W                   H        E   S   S S  S S  S   
---------------------|--------------------------------|
---------------------|--------------------------------|
--<>9----------------|--L--------L--11br-L-9----------|
---------------------|-----------------------11-9-----|
---------------------|----------------------------11S-|
---------------------|--------------------------------|


   E  S  S  E  E   E  E   E  E      W                  
--------------------------------|--------------------||
--------------------------------|--------------------||
--------------------------------|--------------------||
------9----11--9------9---------|--------------------||
--12----12--------11-----11--9--|--------------------||
--------------------------------|--12----------------||




Duration Legend
---------------
W - whole
H - half
Q - quarter
E - 8th
S - 16th
T - 32nd
X - 64th
. - note dotted
|-n-|  - n-tuplets


Tablature Legend
----------------
L - tied note
x - dead note
g - grace note
(n) - ghost note
> - accentuded note
NH - natural harmonic
AH - artificial harmonic
TH - tapped harmonic
SH - semi harmonic
PH - pitch harmonic
h - hammer on
p - pull off
b - bend
br - bendRelease
pb - preBend
pbr - preBendRelease
brb - bendReleaseBend
\n/ - tremolo bar dip
\n - tremolo bar dive
-/n - tremolo bar Release up
/n\ - tremolo bar inverted dip
/n - tremolo bar return
-\n - tremolo bar Release down
S - shift slide
s - legato slide
/ -  slide into from below or out of upwards
\ -  slide into from above or out of downwards
~ - vibrato
W - wide vibrato
tr - trill
TP - tremolo picking
T - tapping
S - slap
P - pop
< - fade in
^ - brush up
v - brush down
Tap to rate this tab
# A B C D E F G H I J K L M N O P Q R S T U V W X Y Z