Mr Big - Next Time Around tab

Band : Mr. Big
Song : Next Time Around (Intro)
Album : Next Time Around: Best of Mr. Big
2010

Interpretation by John Martinovich

Tuning : Standard

h - hammer-on
p - pull-off
t - tap

Intro

E--------------------------------------------------------|
B--------------------------------------------------------|
G--------------------------------------------------------|
D---t12p5h7t12p7p5t12p5h7t12p7p5-t7p5h7t12p7p5-----------|  x3
A--------------------------------------------------------|
E--------------------------------------------------------|
                                 ^double time^

E--------------------------------------------------------|
B--------------------------------------------------------|
G---------------------------------------7----------------|
D---t7p5h7t9p7p5t11p5h7t12p7p5t14~---7--7----------------|
A------------------------------------7--5----------------|
E------------------------------------5-------------------|


**I've listened to this song for the longest time, and finally, I'm passing down my work 
everyone here.  Enjoy, and feel free to email me at BitingWaxTadpole@gmail.com**
Tap to rate this tab
 
# A B C D E F G H I J K L M N O P Q R S T U V W X Y Z