Song name
# A B C D E F G H I J K L M N O P Q R S T U V W X Y Z

Mr Big - Colorado Bulldog tab

Mr. Big - Colorado Bulldog intro

This is the correct intro, I got sick of the wrong intro tabs and now, you have the 
one transcribed by me, Cheesepuff, after watching the Terrifying guitar trip DVD.

To do it exactly how Paul does it,

Pick the 1st note and hammer on the other 2
then alt. pick the other 3 starting with an upstroke.

Good luck!

in septuplets

e|----------------------------------------------------------------------------------------------|
B|------------------------------------------------------------------------------------12-15-17--|
G|-------4-7-9-------7-9-12--------9-12-14--------12-14-16----------14-16-19--------------------|
D|-2-5-7-------5-7-9--------7-9-12--------9-12-14----------12-14-17----------14-17-19-----------|
A|----------------------------------------------------------------------------------------------|
E|----------------------------------------------------------------------------------------------|


e|-----------10-12-15----------12-15-17-19-17-15---------17-15-12---------15-12-10--------------|
B|--------------------10-12-15------------------17-15-12---------15-12-10-----------------------|
G|-12-14-16------------------------------------------------------------------------16-14-12-----|
D|----------------------------------------------------------------------------------------------|
A|----------------------------------------------------------------------------------------------|
E|----------------------------------------------------------------------------------------------|


e|----------------------------------------------------------------------------------------------|
B|-17-15-12--------15-12-10---------------------------------------------------------------------|
G|---------14-12-9------------------16-14-12--------14-12-9--------12-9-7-----------------------|
D|-------------------------17-14-12---------14-12-9---------12-9-7--------9-7-5-----------------|
A|------------------------------------------------------------------------------7\--------------|
E|----------------------------------------------------------------------------------------------|
Tap to rate this tab
# A B C D E F G H I J K L M N O P Q R S T U V W X Y Z