Song name
# A B C D E F G H I J K L M N O P Q R S T U V W X Y Z

Mr Big - Take Cover tab


-------------------------------------------------------------------------------
			    TAKE COVER - Mr. Big
-------------------------------------------------------------------------------
Tabbed by: Revozan Agustinus
Email: arevozan@yahoo.com

Tuning: Standard

Intro:

e|--0-/-0---/0--0-/0--/--0--0-\0-\0-0---0--/0---/0-\-0--/-0-/-0-0-/0----|
B|-10-/12-/-14--5-/7-/--12--5-\4-\2-0--10-/12-/-14--\7-/--9-/12-5-/7----|
G|----------------------------------------------------------------------|
D|----------------------------------------------------------------------|
A|----------------------------------------------------------------------|
E|----------------------------------------------------------------------|

Verse:

  (palm mute)
e|-----0----------0------------0---------0--------------|
B|-------0-------------------0---0----------------------|        repeat
G|-------------------9-----------------------9----------|
D|-----------11----------11---------11------------------|
A|------------------------------------------------------|
E|------------------------------------------------------|

      then


e|----------0--------|
B|----------0--------|        
G|---------11--------|
D|---------11--------|
A|-------------------|
E|-------------------|


Chorus:

e|--0-/-0---/0--0-/0--/--0--0-\0-\0-0---0--/0---/0-\-0--/-0-/-0-----|
B|-10-/12-/-14--5-/7-/--12--5-\4-\2-0--10-/12-/-14--\7-/--9-/12-----|
G|------------------------------------------------------------------|
A|------------------------------------------------------------------|
D|------------------------------------------------------------------|
E|------------------------------------------------------------------|

e|-------------------------------------------0-------------------|
B|-------------------------------------------0-------------------|
G|-------------------------------------4-----6-------------------|
D|----------------------------2/4/-6---------6-------------------|
A|----4-\-2-------------2/4------------------4-------------------|
E|-----------0-/2-/-4--------------------------------------------|


Solo:

e|-----0--0--0---0----0----0-----0--0--0-----0----------|
B|----17-17-17--16---12----5----14-14-14----12----------|
G|------------------------------------------------------|    
D|------------------------------------------------------|
A|------------------------------------------------------|
E|------------------------------------------------------|

e|------9-\--------------|
B|------9-\--------------|
G|------9-\--------------|
D|-----11-\--------------|
A|-----11-\--------------|
E|------9-\--------------|

| /  slide up
| \  slide down
| PM palm mute


THAT'S IT

questions and comments to arevozan@yahoo.com
Tap to rate this tab
 
# A B C D E F G H I J K L M N O P Q R S T U V W X Y Z