Song name
# A B C D E F G H I J K L M N O P Q R S T U V W X Y Z

Mr Bones And The Boneyard Circus - Go Go Dance tab

Go Go Dance

Artist: Mr. Bones & the Boneyard Circus
Album: Horror Scene
Tabbed by: Adrian Carlo Picar
Cel. No.: 09267544905
Email Add.: picar.adrian@gmail.com
            banzaichibichan_ultimate_0034@yahoo.com


Tabbed by ear
Drop C
Great song
Unique sound compared to usual OPM (original Pilipino music) rock songs
Good concept of the music video (more like Sweeny Todd)
For the adlib part, I didn't include it. I'm not good at figuring lead parts (ones with plucking).


Riff 1:

Rhythm

D-----------------------------------|
A-----------------------------------|
F-----------------------------------|
C--7s9--9--10--9--7-----------------|
G--xsx--x--x---x--x-----------------|
C--7s9--9--10--9--7-----------------|

Lead

D-----------------------------------|
A-----------------------------------|
F--7s9--9--10--9--7-----------------|
C--xsx--x--x---x--x-----------------|
G--5s7--7--8---7--5-----------------|
C-----------------------------------|


Riff 2:

Rhythm

D-----------------------------------|
A-----------------------------------|
F-----------------------------------|
C--0h2--2--3--2--0------------------|
G--0h2--2--3--2--0------------------|
C--0h2--2--3--2--0------------------|

Lead

D-----------------------------------|
A-----------------------------------|
F--7s9--9--10--9--7-----------------|
C--xsx--x--x---x--x-----------------|
G--5s7--7--8---7--5-----------------|
C-----------------------------------|


Riff 3:

Rhythm

D-----------------------------------|
A-----------------------------------|
F-----------------------------------|
C--0h2--2--3--2--0------------------|
G--0h2--2--3--2--0------------------|
C--0h2--2--3--2--0------------------|

Lead

D-----------------------------------|
A--7h9h9--7h9h9--7~-----------------|
F-----------------------------------|
C-----------------------------------|
G-----------------------------------|
C-----------------------------------|


Riff 4:

Rhythm

D-----------------------------------|
A-----------------------------------|
F-----------------------------------|
C--7--9--10--9----------------------|
G--x--x--x---x----------------------|
C--7--9--10--9----------------------|

Lead

D-----------------------------------|
A-----------------------------------|
F--7--9--10--9----------------------|
C--x--x--x---x----------------------|
G--5--7--8---7----------------------|
C-----------------------------------|


Riff 5:

Rhythm

D-----------------------------------|
A-----------------------------------|
F-----------------------------------|
C--2--x--2--x-----------------------|
G--2--x--2--x-----------------------|
C--2--x--2--x-----------------------|

Lead

D-----------------------------------|
A-----------------------------------|
F-----7b-----5b---------------------|
C--2--xb--2--xb---------------------|
G--2--5b--2--3b---------------------|
C--2------2-------------------------|


Riff 6:

Rhythm

D-----------------------------------|
A-----------------------------------|
F-----------------------------------|
C--2--x--2--x-----------------------|
G--2--x--2--x-----------------------|
C--2--x--2--x-----------------------|

Lead

D-----------------------------------|
A-----6b-----5b---------------------|
F-----------------------------------|
C--2------2-------------------------|
G--2------2-------------------------|
C--2------2-------------------------|


Riff 7:

Rhythm

D-----------------------------------|
A-----------------------------------|
F-----------------------------------|
C--2~-2~-2~-2-2-2-2-2~--------------|
G--2~-2~-2~-2-2-2-2-2~--------------|
C--2~-2~-2~-2-2-2-2-2~--------------|

Lead

D-----------------------------------|
A-----------------------------------|
F--9~-9~-9~-9-9-9-9-9~--------------|
C--x~-x~-x~-x-x-x-x-x~--------------|
G--7~-7~-7~-7-7-7-7-7~--------------|
C-----------------------------------|


Riff 1 x 11



Riff 2 x 4



Riff 3 x 3

Riff 4 x 6

Riff 2 x 8

Riff 5 x 16

Riff 6 x 8

Riff 3 x 8



Riff 1 x 7



Riff 3 x 8



Riff 1 x 7



Riff 3 x 8

Riff 7

Legend:

~  let ring
b  bend
s  slide
h  hammer

Comments/Suggestions:
Browse at the top part of the tab.

Official website of this band:
http://www.boneyardcircus.com
Tap to rate this tab
 
# A B C D E F G H I J K L M N O P Q R S T U V W X Y Z