Mr Bones And The Boneyard Circus - Grease Gas And Glory tab

-------------------------------------------------------------------------------
	       Grease, Gas, and Glory - Mr. Bones and The Boneyard Circus
-------------------------------------------------------------------------------
Tabbed by: dr.chan
Email: dr.chan@boneyardcircus.com

Tuning: Standard 

INTRO / VERSE
	
	A					D					A
e|-----------------------|----------------------|-------------------------------|
B|-----------------------|----------------------|-------------------------------|
G|-----------------------|----------2-2---------|-------------------------------|
D|-----------------------|--0-000-3-----3-2(2x)-|-------------------------------|
A|--0-000-3-6-6-5-3-(4x)-|----------------------|-0-000-3-6-6-5-3-(2x)----------|
E|-----------------------|----------------------|-------------------------------|

	F					E				A	E9
e|---------------------|------------------|------------------|------------------|
B|---------------------|------------------|------------------|--7-7-7-7-7-7-----|
G|---------------------|------------------|------------------|--7-7-7-7-7-7-----|
D|--------7-10-10-7----|-------6-9-9-6----|------------------|--6-6-6-6-6-6-----|
A|--8-888-----------8--|--7-777---------7-|--0-000-3-6-6-5-3-|--7-7-7-7-7-7-----|
E|---------------------|------------------|------------------|------------------|

CHORUS

	D	  D		A				A		E9	  D9
e|----------------------------------------------------|-----------------------|
B|----------------------------------------------------|--7~------5~-----------|
G|--7-7---7-7-----------------------------------------|--7~------5~-----------|
D|--7-7---7-7-----------------------------------------|--6~------4~-----------|
A|--5-5---5-5--0-000-3-6-6-5-3---0-000-3-6-6-5-3-(4x)-|--7~------5~-----------|
E|----------------------------------------------------|-----------------------|

e|----------------------------------------------------|-----------------------|
B|----------------------------------------------------|-----------------------|
G|-------------------10-9~~------10~~------------(4x)-|-----------------------|
D|-------------8/10-----------------------------------|-----------------------|
A|----------------------------------------------------|-----------------------|
E|----------------------------------------------------|-----------------------|
	
e|---------------------------------------------------------------------------|
B|--------------------7-7-7-7-7-7--------------------------------------------|
G|--------------------7-7-7-7-7-7--------------------------------------------|
D|--------------------6-6-6-6-6-6--------------------------------------------|
A|--0-000-3-6-6-5-3---7-7-7-7-7-7--------------------------------------------|
E|---------------------------------------------------------------------------|

SOLO (same as Intro/Verse)

VERSE 2 (same as Intro/Verse)

CHORUS (end with E9 - D9 - Am)



VERSE 1
Canít stop the feeling of hating your face
Wanting all bullets blow you to disgrace!
Itching and scratching my God getaway
Canít you see Iím dying from your stay!

Driving my herse down the road with your head
Down route 666 all I see is red
Im living my life with your head filled w/ lead
This is my dream that I have knelt and said
She saidÖ..

CHORUS
Grease,gas and glory

GLORY!

VERSE 2
Driving horror to the highway HELL
Me and my motor extinct lives as well
Fiendish roars and hellish screams
Im waiting for your horror scene
She saidÖ..

CHORUS
Grease, Gas and Glory

GLORY!!!

************************************

| /   slide up
| \   slide down
| h   hammer-on
| p   pull-off
| ~   vibrato
| +   harmonic
| x   Mute note
| b   Bend
| pb  Pre-bend
| br  Bend release
| pbr Pre-bend release
| brb Bend release bend

************************************
Tap to rate this tab
 
# A B C D E F G H I J K L M N O P Q R S T U V W X Y Z