Song name
# A B C D E F G H I J K L M N O P Q R S T U V W X Y Z

Mr Bones And The Boneyard Circus - Go Go Dance tab

-------------------------------------------------------------------------------
	       Go Go Dance - Mr. Bones and The Boneyard Circus
-------------------------------------------------------------------------------

www.boneyardcircus.com

Tuning: Drop D

INTRO
e|---------------------------------------------------------------------------|
B|---------------------------------------------------------------------------|
G|--7--7--8--7--6------------------------------------------------------------|
D|--x--x--x--x--x--(4x)------------------------------------------------------|
A|--5--5--6--5--4------------------------------------------------------------|
D|---------------------------------------------------------------------------|

VERSE
e|---------------------------------------------------------------------------|
B|---------------------------------------------------------------------------|
G|---------------------------------------------------------------------------|
D|---------------------------------------------------------------------------|
A|--5--5-5-5--6--5--4~--(7x)--5--5-5-5--6--5--4--5-(break)-------------------|
D|---------------------------------------------------------------------------|

CHORUS
e|---------------------------------------------------------------------------|
B|---------------------------------------------------------------------------|
G|-------------------6~------------------------------------------------------|
D|--0--0--0--0h1--0--x-------------------------------------------------------|
A|--0--0--0--0h1--0--4~---(4x)--(break)--------------------------------------|
D|--0--0--0--0h1--0----------------------------------------------------------|

e|---------------------------------------------------------------------------|
B|---------------------------------------------------------------------------|
G|-------------------6-----11-12p11------11-12p11------11-12p11----11~-------|
D|--0--0--0--0h1--0--x-----11-12p11-14---11-12p11-14---11-12p11-14-11~-------|
A|--0--0--0--0h1--0--4--------------14------------14------------14-----------|
D|--0--0--0--0h1--0----------------------------------------------------------|

REFRAIN
e|---------------------------------------------------------------------------|
B|---------------------------------------------------------------------------|
G|--6-br-0-------------------------------------------------------------------|
D|--x-br-0--1-br-0-----------------------------------------------------------|
A|--4-br-0--1-br-0----(6x)---------------------------------------------------|
D|----------1-br-0-----------------------------------------------------------|

CHORUS

REFRAIN 2
e|---------------------------------------------------------------------------|
B|---------------------------------------------------------------------------|
G|---------------------------------------------------------------------------|
D|--12br--0---10br--0---12br---0---9br--0------------------------------------|
A|--x-----0---x-----0---x------0---xbr--0----(6x)----------------------------|
D|--9br---0---7br---0---9br----0---6br--0------------------------------------|

CHORUS

BRIDGE (Dm7-Am)
e|---------------------------------------------------------------------------|
B|--5-6-5---5-6-5-----------5-6-5---5-6-5------------------------------------|
G|--------7-------5-7-------------7-------5-7-7s9-6--------------------------|
D|--------------------7-7----------------------------------------------------|
A|---------------------------------------------------------------------------|
D|---------------------------------------------------------------------------|


VERSE

CHORUS


************************************

| /   slide up
| \   slide down
| h   hammer-on
| p   pull-off
| ~   vibrato
| +   harmonic
| x   Mute note
| b   Bend
| pb  Pre-bend
| br  Bend release
| pbr Pre-bend release
| brb Bend release bend

************************************
Tap to rate this tab
 
# A B C D E F G H I J K L M N O P Q R S T U V W X Y Z