Song name
# A B C D E F G H I J K L M N O P Q R S T U V W X Y Z

Mr Bungle - Carousel tab

Help us improve GuitareTab! Take a short survey!
Carousel - Mr. Bungle

Intro

E-|---5----5----x----7----------8---8---x---10---------5---5----x----|
B-|---5----5----x----5----------8---8---x---8----------5---5----x----|
G-|---5---------x----5----------8-------x---8----------5--------x----|
D-|---7---------x----7----------10------x---10---------7--------x----|
A-|-------------x-----------------------x----------------------------|
E-|------------------------------------------------------------------|


E-|--7----------4---4----x----6----------5---5----x--7----------11---|
B-|--5----------4---4----x----4----------5---5----x--5----------11---|
G-|--5----------4--------x----4----------5--------x--5----------11---|
D-|--7----------6--------x----6----------7--------x--7----------13---|
A-|----------------------x-------------------------------------------|
E-|------------------------------------------------------------------|
								   

E-|-11--x---13------2----4---5----4-----2----4-----5-----------------|
B-|-11--x---11------2----1---2----1-----2----1-----2-----------------|
G-|-----x---11------2----1---2----1-----2----1-----2-----------------|
D-|-----x---13------4----3---2----3-----4----3-----2-----------------|
A-|-----x------------------------------------------------------------|
E-|------------------------------------------------------------------| 
[Play throughtout following]

Intro

Intro With Brass

Verse


Verse Change [CD Time - 0:36 seconds]

E-|--7---7--x--9---x--10--x--12--------------------------------------|
B-|--7---7--x--9---x--10--x--12--------------------------------------|
G-|--7------x--9---x--10--x--12-----Repeat--4x-----------------------|
D-|--9------x--11--x--12--x--14--------------------------------------|
A-|------------------------------------------------------------------|
E-|------------------------------------------------------------------|



[CD Time - 0:43 seconds]

E-|--7-7--7--6-6---7-7-7--6--6------10---10---9---9---9--------------|
B-|--5-5--5--5-5---5-5-5--5--5------8----8----8---8---8--------------|
G-|------------------------------------------------------------------|
D-|------------------------------------------------------------------|
A-|------------------------------------------------------------------|
D-|------------------------------------------------------------------|




Chorus [CD Time - 1:04]

E-|------------------------------------------------------------------|
B-|------------------------------------------------------------------|
G-|-9--------9---8---7----------7---8--9------------9----11----------|
D-|-9--------9---8---7----------7---8--9------------9----11----------|
A-|-7--------7---6---5----------5---6--7------------7----9-----------|
E-|-0----------------------------------0-----------------------------|

	
E-|------------------------------------------------------------------|
B-|------------------------------------------------------------------|
G-|----------------------Listen to it..... repeat in time------------|
D-|--5---------------------------------------------------------------|
A-|--5---------------------------------------------------------------|
E-|--3---------------------------------------------------------------|

HEY YOU!

Intro [CD Time - 1:25]

Verse


Break [CD Time - 1:52]

E-|------------------------------------------------------------------|
B-|------------------------------------------------------------------|
G-|--------------------------6--6-----2--2---5--5----5--5------------|
D-|--4--4----4--4----4--4----6--6-----2--2---5--5----5--5------------|
A-|--4--4----4--4----4--4----4--4-----0--0---3--3----3--3------------|
E-|--2--2----2--2----2--2--------------------------------------------|


E-|------------------------------------------------------------------|
B-|------------------------------------------------------------------|
G-|------------------------------------------------------------2--2--|
D-|--4-----x-x-x----4--4-------4--4---4--4-------------6--6----2--2--|
A-|--4-----x-x-x----4--4-------4--4---4--4-----3--3----4--4----0--0--|
E-|--2-----x-x-x----2--2-------2--2---2--2-----1--1------------------|



E-|------------------------------------------------------------------|
B-|------------------------------------------------------------------|
G-|--5--5----5-------------------------------------------------------|
D-|--5--5----5-------------------------------------------------------|
A-|--3--3----3-----4-4--3-3---2-2---3--3--4--4--3--3--2--2---3--3----|
E-|----------------2-2--1-1---0-0---1--1--2--2--1--1--0--0---1--1----|



E-|------------------------------------------------------------------|
B-|------------------------------------------------------------------|
G-|-------------------------------Repeat 4x -------------------------|
D-|--------0--2---3--3--0--------------------------------------------|
A-|-2--2-------------------3-----------------------------------------|
E-|------------------------------------------------------------------|




[CD Time - 2:14 seconds]

E-|--7-7--7--6-6---7-7-7--6--6------10---10---9---9---9--------------|
B-|--5-5--5--5-5---5-5-5--5--5------8----8----8---8---8--------------|
G-|------------------------------------------------------------------|
D-|------------------------------------------------------------------|
A-|------------------------------------------------------------------|
E-|------------------------------------------------------------------|


Chorus

Random Guitar Stabs Dring Break Down in Am for 8 beats. [CD Time - 2:56]



[CD Time - 3:02]
                        (*) emphasise

E-|-----(9)---(8)---(9)---(10)---(9)---(8)---(9)---------------------| 
B-|------7-----7-----7-----7------7-----7-----7----------------------|
G-|--7---7-----7-----7-----7------7-----7-----7----------------------|
D-|------------------------------------------------------------------|
A-|------------------------------------------------------------------|
E-|------------------------------------------------------------------|

E-|-(8)---(7)---(5)---(7)---------(7)---(7)---(7)--------------------| 
B-|--5-----5-----5-----5-----------5-----5-----5---------------------|
G-|--5-----5-----5-----5---------------------------------------------|
D-|------------------------------------------------------------------|
A-|------------------------------------------------------------------|
E-|------------------------------------------------------------------|

E-|-----(7)---(6)---(4)--------(7)---(6)---(4)-----------------------| 
B-|------3-----3-----3----------6-----6------------------------------|
G-|------------------------------------------------------------------|
D-|------------------------------------------------------------------|
A-|------------------------------------------------------------------|
E-|------------------------------------------------------------------|

E-|-----(7)---(6)---(4)--------(7)---(6)---(4)-----------------------| 
B-|------3-----3-----3----------6-----6-----0------------------------|
G-|------------------------------------------------------------------|
D-|------------------------------------------------------------------|
A-|------------------------------------------------------------------|
E-|------------------------------------------------------------------|


E-|-(5)--(4)--(2)--(4)--(5)--(4)--(2)--(5)--(4)--(2)--(4)--(4)--(2)--(4)-| 
B-|--2----2----2----2----2----2----2----1----1----1----1----1----1----1--| 
G-|--2----2----2----2----2----2----2----1----1----1----1----1----1----1--|
D-|----------------------------------------------------------------------|
A-|----------------------------------------------------------------------|
E-|----------------------------------------------------------------------|X2

E-|-(10)--(9)--(7)--(10)--(9)--(7)-------(12)--(10)---------(12)--(10)---|
B-|--9-----9----5----9-----9----5---(12)--------------(12)---------------|
G-|----------------------------------9----9-----9------9-----9------9----|
D-|----------------------------------------------------------------------|
A-|----------------------------------------------------------------------|
E-|----------------------------------------------------------------------|



Guitar Break [CD Time - 3:24]

E-|-----------------------------------------------------|
B-|----------10--------8--------------------------------|
G-|--------9---------9------------12--------------------|
D-|-----10------9-10--------10-13----10----12-----------|
A-|--12--------------7---10-----------------------------|
E-|-----------------------------------------------------|
                     

E-|-----------11----------10----------------------------|
B-|--------11----------11----------11----11-------------|
G-|-----11----------10----------10----10----------------|
D-|--13----------12----------11-------------------------|
A-|-----------------------------------------------------|
E-|-----------------------------------------------------|


E-|------------------|------(4)-----------------7-------|
B-|------------------|----------------------7-----7-----|
G-|--------5-----5-8-|----(4)---------------7-----------|
D-|------6-----6-----|--(6)-----6----8----9-------8---6-|
A-|--8-8-----7-------|(6)-------------------------------|
E-|------------------|----------------------------------|
                     |barre for this using Abm shape (*)

Break [CD Time - 3:38]

Intro Extended

Fairground Sound!

END!

LYRICS

A carnival for the human race,
Cotton candy, happy face,
A child talking with his mouth full,
Girlfriend gets stuffed animal.

A festive mood is all around,
Another world is what we've found,
Step right up, let's make a deal,
Let's ride on the ferris wheel.

You know there's something lurking underneath the shape,
With a mask over it's head and makeup on his face,
Will Warner Bros. put our record on the shelve?,
Take a look in the mirror and see the clown in yourself.

Spinning, Grinning, Believing, Deceiving,
Whirling, Twirling, Confusing, Amusing,
Discovery, Recovery, Inherency, Transparency,
Fusion, Conclusion, Reality, Fatality.

If you want to know what's behind the show,
You ride my carousel and enter life's jail cell,
Love and blood begin to meld, you've lost the self that you once held,
Merry go round your head - awake, asleep, alive, or dead.

The clown that painted a smile on you,
Is now the one unmasking you,
Animated scenes unwind,
Dormant figures come to life.

Entangled in your own web,
A twisted tunnel overhead,
A glimpse of light, a drop of dew,
You slide into the swimming pool.

A roller coaster ride into the rivers of your mind,
The currents merge, your feelings surge, your life's a pantomime,
Beauty is the spiral going round & round the beast,
Without the vampire effect the carnival is deceased.

Fun.

Roly Poly,
Topsy turvy,
Hang upside down,
Fall to the ground,
I think I'm going to be sick.


tabbed by Chris aaron - chris.aaron@hotmail.co.uk 
(For an easier to read version email me & i'll send)
Related for Carousel tab