Song name
# A B C D E F G H I J K L M N O P Q R S T U V W X Y Z

Mr Bungle - Pink Cigarette tab

Intro goes like this:

E|---7---7---7---7---7---7---7---7--|
B|-----7---7---7---7---6---6---6---6|
G|----------------------------------|
D|----------------------------------|
A|----------------------------------|
E|----------------------------------|

E|----------------------------------|
B|---6\3---3/5--2-------------------|
G|----------------5-4--------3------|
D|-----------------------5------5-4~|
A|----------------------------------|
E|----------------------------------|

E|----17----17----17----17----------|
B|-------19----19----19----19-------|
G|----------------------------------|
D|----------------------------------|
A|----------------------------------|
E|----------------------------------|

E|----17----17----17----17----------|
B|-------18----18----18----18-------|
G|----------------------------------|
D|----------------------------------|
A|----------------------------------|
E|----------------------------------|
Tap to rate this tab
 
# A B C D E F G H I J K L M N O P Q R S T U V W X Y Z