Song name
# A B C D E F G H I J K L M N O P Q R S T U V W X Y Z

Mr Mister - Kyrie tab

Several tuning / fingering options for the keyboard arpeggio.

Tabbed by: hurryfashion

Standard or Drop-D tuning

Standard:

    G7                                  F
e|---------------------------------||---------------------------------|
B|---------------------------------||---------------------------------|
G|---------------------------------||---------------------------------|
D|-----3-----5-----3-----5-3-------||-----3-----2-----0-----0-0-------|
A|---5-----5-----5-----5-----3---3-||---3-----3-----3-----3-----3-3---|
E|-3-----3-----3-----3---------1---||-1-----1-----1-----1-----------1-|


Drop-D:

e|---------------------------------||---------------------------------|
B|---------------------------------||---------------------------------|
G|-----------0-----------0---------||---------------------------------|
D|-----3-----------3-------3-------||-----3-----2-----0-----0-0-------|
A|---5-----5-----5-----5-----3---3-||---3-----3-----3-----3-----3-3---|
D|-5-----5-----5-----5---------3---||-3-----3-----3-----3-----------3-|


Drop-D, capo 3

e|---------------------------------||---------------------------------|
B|---------------------------------||---------------------------------|
G|---------------------------------||---------------------------------|
D|-----0-----2-----0-----2-0-------||-----0---------------------------|
A|---2-----2-----2-----2-----0---0-||---0-----0-4---0-2---0-2-2-0-0---|
E|-2-----2-----2-----2---------0---||-0-----0-----0-----0-----------0-|
Tap to rate this tab
 
# A B C D E F G H I J K L M N O P Q R S T U V W X Y Z