Song name
# A B C D E F G H I J K L M N O P Q R S T U V W X Y Z

Mr Oizo - Cut Dick tab

Great groovy riff by Mr Oizo... Enjoy ! (http://www.oizo3000.com/)

1,2,3...

Riff 1

E----------------------------------------------|
B----------------------------------------------|
G----------------------------------------------|
D-x-10-8h10--8-10-8h10--10-8h10---8------------|
A-------------------------------10--10\8-6h8p6-|
E----------------------------------------------|

Riff 2

E---------------------------------------|
B---------------------------------------|
G----------------8----------------------|
D---10-8h10--8-8---8-10-8-10-------8-10-|
A----------------------------8-9h10-----|
E---------------------------------------|

Riff 1,2 (4 times)
Riff 1 (8 times)
Riff 1,2 (2 times), but stop the last Riff 2 on the 8 of the G string.

Sax solo...
And then the guitar comes back :

Riff 3 (4 times)

E-------------------------------|
B-------------------------------|
G-------------------------------|
D-9-9---10-10--9-9---10-10-(0)x-|
A-------------------------------|
E-------------------------------|

Riff 4 (4 times)

E-----------------------------------|
B-----------------------------------|
G------------------------------(0)x-|
D-12-12---13-13--12-12---13-13------|
A-----------------------------------|
E-----------------------------------|


Then come back to Riffs 1&2 but play them 4 semi-tones lower (x-6-4h6...)
Play (1,2) 2 times, then 1 4 times.
Tap to rate this tab
 
# A B C D E F G H I J K L M N O P Q R S T U V W X Y Z