Song name
# A B C D E F G H I J K L M N O P Q R S T U V W X Y Z

Mr Pollack - Za Dziewiec Osma tab

------------------------------------------------------------------------------- 
	                Mr. Pollack - Za dziewiec Osma
                              www.mrpollack.pl
-------------------------------------------------------------------------------
Tabbed by: Krzysiek Paliga (assasinos/giutargreenday @ YouTube)
Email: drajvver@gmail.com
You can listen to it here (my cover): http://www.youtube.com/watch?v=CdfR5dhB4sU

Tuning: Standard E

E||-------------------------|--------------------------|
B||-------------15----12----|--13----12----10----10----|
G||--12----9----------------|--------------------------|
D||-------------------------|--------------------------|
A||-------------------------|--------------------------|
E||-------------------------|--------------------------|


                                                                               
------------------------|--------------------------|--15----20----------22----|
--8---------------15----|--12----13----------15----|--------------20----------|
-------10----9----------|--------------12----------|--------------------------|
------------------------|--------------------------|--------------------------|
------------------------|--------------------------|--------------------------|
------------------------|--------------------------|--------------------------|


                                                          
--24----24b----24----22----|--20----17b----19b----17b----||
---------------------------|-----------------------------||
---------------------------|-----------------------------||
---------------------------|-----------------------------||
---------------------------|-----------------------------||
---------------------------|-----------------------------||

************************************

| /   slide up
| \   slide down
| h   hammer-on
| p   pull-off
| ~   vibrato
| +   harmonic
| x   Mute note
| b   Bend
| pb  Pre-bend
| br  Bend release
| pbr Pre-bend release
| brb Bend release bend

************************************
Tap to rate this tab
# A B C D E F G H I J K L M N O P Q R S T U V W X Y Z