Song name
# A B C D E F G H I J K L M N O P Q R S T U V W X Y Z

Mr Probz - Waves tab

-------------------------------------------------------------------------------
                             Waves - Mr Probz
-------------------------------------------------------------------------------
Tabbed by: geldkwestie

Tuning: Standard


This progression is used throughout the entire song.
e|------------------------------------------|
B|------9-----------------------------------|
G|--------------9-------------8-------------|
D|---10-------9-----------------------11----|
A|-8--------7--------------10------11-------|
E|-----------------------8-------9----------|

Enjoy!
Tap to rate this tab
# A B C D E F G H I J K L M N O P Q R S T U V W X Y Z