Mr Spoon - Button Moon Theme tab


e 0-0-0-3-1-1-5-3--|
B 1-1-1-0-1-1-6-0--|
G 0-0-2-0-2-2-7-0--|
D 2-2-2-0-3-3-7-0--| x2
A 3-2-0-2-3-3-5-2--|
E ------3-1-0---3--|

e-0-0-0-3-1-1-5-3-0--5-1--|
B-1-1-1-0-1-1-6-0-1--6-0--|
G-0-0-2-0-2-2-7-0-2--7-0--|
D-2-2-2-0-3-3-7-0-2--7-0--|
A-3-2-0-2-3-3-5-2-0--5-2--|
E-------3-1-0---3------3--|

Chords (Instead of tab)

C, B(over C), A min,G,F,E(over F), D min,G, X3

After 3rd time it goes to:
A min, D min,G.
Tap to rate this tab
 
# A B C D E F G H I J K L M N O P Q R S T U V W X Y Z