Song name
# A B C D E F G H I J K L M N O P Q R S T U V W X Y Z

Mr T Experience - Ba Ba Ba Ba Ba tab

~tab by hsdie~                                       

STANDARD TUNING

INTRO
e|----------------------------|
B|----------------------------|
G|--7-7---------------7-7-7---|
D|--7-7---7-7---5-5---7-7-7---|
A|--5-5---7-7---5-5---5-5-5---|
E|--------5-5---3-3-----------| x4

VERSE
e|---------------------------------------|
B|---------------------------------------|
G|--7-7-7-7------------------------------|
D|--7-7-7-7--7-7-7-7--5-5-5-5--7-7-7-7---|
A|--5-5-5-5--7-7-7-7--5-5-5-5--7-7-7-7---|
E|-----------5-5-5-5--3-3-3-3--5-5-5-5---|

*(figure out the palm-mute yourselves)*

e|-----------------------------------|
B|-----------------------------------|
G|--7-7-7-7-7-7-7--------------------|
D|--7-7-7-7-7-7-7--7-7-7-7-7-7-7-7---|
A|--5-5-5-5-5-5-5--7-7-7-7-7-7-7-7---|
E|-----------------5-5-5-5-5-5-5-5---|
*
e|---------------------|
B|--7-7--7-7-----------|
G|-------5-5-------7-7-|
D|--7-7--7-7--5-5--7-7-|
A|--5-5--5-5--5-5--5-5-|
E|------------3-3------|
*
e|---------------------------------------|
B|---------------------------------------|
G|--7-7-7-7------------------------------|
D|--7-7-7-7--7-7-7-7--5-5-5-5--7-7-7-7---|
A|--5-5-5-5--7-7-7-7--5-5-5-5--7-7-7-7---|
E|-----------5-5-5-5--3-3-3-3--5-5-5-5---|


CHORUS
e|----------------------------|
B|----------------------------|
G|--7-7---------------7-7-7---|
D|--7-7---7-7---5-5---7-7-7---|
A|--5-5---7-7---5-5---5-5-5---|
E|--------5-5---3-3-----------| x2

OUTRO
e|---------------------------------------|
B|---------------------------------------|
G|--9-9-9-9--------------------9-9-9-9---|
D|--9-9-9-9--9-9-9-9--7-7-7-7--9-9-9-9---|
A|--7-7-7-7--9-9-9-9--7-7-7-7--7-7-7-7---|
E|-----------7-7-7-7--5-5-5-5------------| x4

e|--------0~----|
B|--------0~----|
G|--------1~----|
D|--7-7---2~----|
A|--7-7---2~----|
E|--5-5---0~----|

ORDER

-INTRO-
-VERSE-(PALM-MUTE)
-VERSE-
-CHORUS-
-OUTRO-

COMMENT for any doubt
Tap to rate this tab
# A B C D E F G H I J K L M N O P Q R S T U V W X Y Z