Song name
# A B C D E F G H I J K L M N O P Q R S T U V W X Y Z

Mrs Greenbird - Shooting Stars And Fairy Tales chords

Highlighted       Show chord diagrams
Shooting Stars & Fairy Tales
Mrs. Greenbird     Capo 2

Intro: 2*
      Aadd9   [ch]Aadd9/G[/ch]   [ch]Aadd9/F#[/ch] [ch]Aadd9/G[/ch]
e | ----0--------0--------0--------0-----------|
B | ----0--------0--------0--------0-----------|
G | ----2--------2--------2--------2--- BL1: --|
D | ----2--------2--------2--------2-------0h2-|
A | --0!---------0--------0--------0----0h2----|
E | ----x------3!-------2!-------3!------------|

Verse 1:                                        SIE
Aadd9    [ch]Aadd9/G[/ch]    [ch]Aadd9/F#[/ch]   [ch]Aadd9/G[/ch]
Once I  saw a   falling   star
And it  fell   into my   heart      
It lightend up my  darkest   parts
And it  warmed it with its  spark   (BL1)

Bridge1:
        B5      G6       B5      E
e | ----x--------0--------x--------0--------|
B | ----0--------0--------0--------0--------|
G | ----4--------4--------4--------1--------|
D | ----4--------0--------4--------2--------|
A | ----2--------2--------2--------2--------|
E | ----x--------3--------x--------0--------|
 B5                G6
Shooting stars and fairy tales                  SIE + ER
 B5                      E
They are the wind in my sails

Chorus:
        Dadd9   F#m    Aadd9       E
e | ----0--------2--------0--------0--------|
B | ----3--------2--------0--------0--------|
G | ----2--------2--------2--------1--------|
D | ----0--------4--------2--------2--------|
A | ----x--------4--------0--------2--------|
E | ----x--------2--------x--------0--------|
        Dadd9   F#m      C#m       E
e | ----0--------2--------4--------0--------|
B | ----3--------2--------5--------0--------|
G | ----2--------2--------6--------1--------|
D | ----0--------4--------6--------2--------|
A | ----x--------4--------4--------2--------|
E | ----x--------2--------4--------0--------|
        B5       A5       E5       E          E5=>E6
e | ----x--------x--------x--------0--------|
B | ----0--------x--------5--------0--------|
G | ----4--------2--------4--------1--------|
D | ----4--------2--------2--------2--------|
A | ----2--------0--------x--------2--------|
E | ----x--------x--------x--------0--------|

             Dadd9
Iím feeling fireworks in here
F#m                  Aadd9                    E
Light up the athmosphere    And I can see so far

             Dadd9                          
Iím feeling fireworks in here
F#m                  C#m                      E
You are the wish my dear    I made upon the star

         B5
You can call me crazy
A5               E5               E     (NC)                     
call me any way you do  
this star has fallen for you                     SIE

2*       Aadd9   [ch]Aadd9/G[/ch]   [ch]Aadd9/F#[/ch] [ch]Aadd9/G[/ch]

Verse 2:                                         SIE + ER
Aadd9   [ch]Aadd9/G[/ch]   [ch]Aadd9/F#[/ch] [ch]Aadd9/G[/ch]
Twice before I heard you say
how you love the milky way
night and day I hope and pray
that this love is here to stay

Bridge 1: 
 B5                G6
Shooting stars and fairy tales
 B5                      E
They are the wind in my sails

Chorus:
             Dadd9
Iím feeling fireworks in here
F#m                  Aadd9                    E
Light up the athmosphere    And I can see so far

             Dadd9                          
Iím feeling fireworks in here
F#m                  C#m                      E
You are the wish my dear    I made upon the star

         B5
You can call me crazy
A5               E5               E     (NC)                     
call me any way you do  
this star has fallen for you


Bridge2:
        Bm      Aadd9    F#m       E
e | ----2--------0--------2--------0--------|
B | ----3--------0--------2--------0--------|
G | ----4--------2--------2--------1--------|
D | ----4--------2--------4--------2--------|
A | ----2--------0--------4--------2--------|
E | ----2--------x--------2--------0--------|
2*   Bm           Add9           \
     You and I Ė are a universe    \  langsame
     F#m           E               /  Abschlšge
     You and I Ė are a universe   /

2*   Dadd9       F#m       Aadd9         E
     Uh uh uh uh uh uh uh uh Uh uh uh uh uh
     (You and I Ė are a universe)

Chorus:
             Dadd9
Iím feeling fireworks in here
F#m                  Aadd9                    E
Light up the athmosphere    And I can see so far
             Dadd9                          
Iím feeling fireworks in here
F#m                  C#m                      E
You are the wish my dear    I made upon the star

         B5
You can call me crazy
A5               E5               E     (NC)                     
call me any way you do  
this star has fallen for you                       SIE

Tap to rate this tab
# A B C D E F G H I J K L M N O P Q R S T U V W X Y Z