Song name
# A B C D E F G H I J K L M N O P Q R S T U V W X Y Z

Ms Dynamite - Put Him Out tab

Help us improve GuitareTab! Take a short survey!
haha, yeah, not really the regular type of song to tab up,
but this intro/chorus riff is actually quite nice.

|----------------------------
|----------------------------
|----10-12-13-12-10-10-12----
|-10----------------------10-
|----------------------------
|----------------------------

|-------------------------
|-------------------------
|----10-12-13-12-10-13/15-
|-10----------------------
|-------------------------
|-------------------------

|----------------------------
|----------------------------
|----10-12-13-12-10-10-12----
|-10----------------------10-
|----------------------------
|----------------------------

|-------------------------
|-------16----------------
|-15/17----17-15-13---10--
|-------------------10----
|-------------------------
|-------------------------

as for the verses I have no idea what so ever, or what the rythm guitar is. 
I just saw this on Jonathan Ross and thought it wasn't a bad little riff.
Related for Put Him Out tab