Song name
# A B C D E F G H I J K L M N O P Q R S T U V W X Y Z

Msg - Nightmare Live Acoustic tab

Nightmare by MSG (Live Acoustic)
	transcribed by Orestis Metillias


(Tuned 1/2 tone down : D# , G# , C# , F# , C , D#)



Riff 1

E-|-5---10---13---17-|-6-6-6--10-10-10--13-13-13-17-17-17-|-15-17-15-|-------|
B-|------------------|------------------------------------|----------|-5-6-5-|
G-|------------------|------------------------------------|----------|-------|
D-|------------------|------------------------------------|----------|-------|
A-|------------------|------------------------------------|----------|-------|
E-|------------------|------------------------------------|----------|-------|



Intro & Verse

E-|---------0-------|---------0-------|--------0------|--------0--------|
B-|-----6-----6-----|-----6-----6-----|----6-----6----|----6-----6------|
G-|---7---7-----7---|---7---7-----7---|--7---7-----7--|--7---7--------7-|
D-|-7-------------7-|-7-------------7-|-8------------8|-8-----------7---|
A-|-----------------|-----------------|---------------|-----------------|
E-|-----------------|-----------------|---------------|-----------------|


E-|---------0-------|---------0-------|-------0-------|--------0--------|
B-|-----6-----6-----|-----6-----6-----|----6----6-----|--------5--------|
G-|---7---7-----7---|---7---7-----7---|--7---7----7---|----6---6--------|
D-|-5-------------5-|-5-------------5-|---------------|--5---5-5--------|
A-|-----------------|-----------------|-7-----------7-|-----------------|
E-|-----------------|-----------------|---------------|-5---------------|



Bridge

E-|---------0---0-1-|---------0---1----|-------3-------|--------5-------|
B-|-----3-----------|-----3---------3--|----3----3---3-|----5-----5-----|
G-|---2---2---2-----|---2---2---2------|--3---3----3---|--5---5-----5---|
D-|-0---------------|-0----------------|-3-------------|-5------------5-|
A-|-----------------|------------------|---------------|----------------|
E-|-----------------|------------------|---------------|----------------|



Chorus

E-|---------1-------|---------0-------|--------3-------|------------------|
B-|-----1-------1---|-----1-----1---1-|-----3----3---3-|-------3--------5-|
G-|---2---2---2---2-|---0---0-----0---|---3---3----3---|-----3--------5---|
D-|-3---------------|-----------------|-5--------------|---3--------5-----|
A-|-----------------|-3---------------|----------------|-1--------3-------|
E-|-----------------|-----------------|----------------|------------------|

E-|---------0--1----|---------0-------|--------3-------|------------------|
B-|-----3--------3--|-----1-----1---1-|-----3----3---3-|-------3--------5-|
G-|---2---2---2-----|---0---0-----0---|---3---3----3---|-----3--------5---|
D-|-0---------------|-----------------|-5--------------|---3--------5-----|
A-|-----------------|-3---------------|----------------|-1--------3-------|
E-|-----------------|-----------------|----------------|------------------|

E-|---------0---1---|---------0-------|--------3-------|------------------|
B-|-----3---------3-|-----1-----1---1-|-----3----3---3-|-------3--------5-|
G-|---2---2---2-----|---0---0-----0---|---3---3----3---|-----3--------5---|
D-|-0---------------|-----------------|-5--------------|---3--------5-----|
A-|-----------------|-3---------------|----------------|-1--------3-------|
E-|-----------------|-----------------|----------------|------------------|



Solo

E-|-6-5-3---5^3---3----------------|-----------------------------------|
B-|-------6-----6---6-5-3---3-6-5^3|---3-------------------------------|
G-|-----------------------6--------|-5---5-3-5-3-2-3-2---3-2---2-------|
D-|--------------------------------|-------------------5-----5---5-3-2-|
A-|--------------------------------|-----------------------------------|
E-|--------------------------------|-----------------------------------|

E-|------------------------|-10^12^10----10-12-13-10-12----10----10-12-13-12-10----------|
B-|-5^6----5-6-----5-6-8---|----------13----------------13----11----------------13-11-10-|
G-|------------7-----------|-------------------------------------------------------------|
D-|------------------------|-------------------------------------------------------------|
A-|------------------------|-------------------------------------------------------------|
E-|------------------------|-------------------------------------------------------------|

E-|------------------------|-13-12-10--------------------------|
B-|--------5-6-----5-6-8---|----------13-11-10-----------------|
G-|------------7-----------|-------------------12-9-10^9-------|
D-|------------------------|-----------------------------10^12-|
A-|------------------------|-----------------------------------|
E-|------------------------|-----------------------------------|

E-|------------------------|-10---------------10---------------------------------------------|
B-|-10---10-11--------10-11|----13-11-10---------13-11-10-11-10------------------------------|
G-|------------12---12-----|-------------12-----------------------12-10-9-10---9-------------|
D-|------------------------|-------------------------------------------------12-10-12-8-10-7-|
A-|------------------------|-----------------------------------------------------------------|
E-|------------------------|-----------------------------------------------------------------|

E-|------------------------|---^5---------------------|
B-|-10---10-11--------10-11|--^6--8-------------------|
G-|-|----------12---12-----|-^7--------7---9^10-7-5-7-|
D-|------------------------|--------------------------|
A-|------------------------|-----------5---7^8--5-3-5-|
E-|------------------------|--------------------------|

I may have a couple of notes wrong but it sounds pretty good so have fun.
Tap to rate this tab
 
# A B C D E F G H I J K L M N O P Q R S T U V W X Y Z