Guitaretab - guitar tabs
Song name
# A B C D E F G H I J K L M N O P Q R S T U V W X Y Z

Msic Unsigned Bands - Mixed Breed - After The Rain tab

-------------------------------------------------------------------------------
		    -MIXED BREED-AFTER THE RAIN-
-------------------------------------------------------------------------------
Tabbed by: Mat waters
Email:Slash_gibsons@hotmail.com

Tuning:EADGBE

INTRO PT1-

   D             A             B            G
e|-------2-------------0-------------0-----------3-----------|
B|-----3---3---------2---2---------3---3-----------3---------|
G|---2-------2-----3-------3-----2-------2-----------0-------|
D|-0-----------0-2-----------2-------------0-----------0-----|X4
A|-----------------------------2---------------2-------------|
E|-------------------------------------------3---------------|

INTRO PT2-

e|-----------------------------------------------------------|
B|-5-7~-5-7-8-7-5-3-0-2-3-2-0--------------------------------|
G|---------------------------2-------------------------------|
D|-----------------------------------------------------------|X2
A|-----------------------------------------------------------|
E|------------------------------------------------------------
[ Tab from: http://www.guitaretab.com/m/msic-unsigned-bands/69142.html ]
VESRE 1-(INTRO)
D           A         B     G
 Now it's time to say goodbye
D                 A
 Laid my love down on the line
B                    G
 You don't know how hard I've tried
        D             
 So many lonely nights
A         B           G 
 Kept my fears locked inside
D  
 No more waiting for you
         A      B         G
 Now the hurting's through

CHORUS-(SAME) (CLEAN)
D             A
Do you see my tears girl?
         B             G                    D
Can you feel my pain? (Can you feel the pain?)
                    A        B           G                D
I take a long walk down that road again (Down the road again)
                   A          B               G 
When the sun comes out, it'll dry my tears away

Oh, it's after the rain

VERSE 2-(SAME)

Now as I see your face I remember how it smiled
And now how it fades, like watercolours run in the rain
I remember my lonely nights
I had face my sacrifice
No more waiting for you
Now the hurtings through

CHORUS(SAME)(DIST)
Do you see my tears girl?
Can you feel my pain? (Can you feel the pain?)
I take a long walk down that road again (Down the road again)
When the sun comes out, it'll dry my tears away
Oh, it's after the rain

INTRO PT2-

INTRO PT1 (OVER NEXT BIT)

Now it's time to say goodbye
Now more waiting for you
Now the hurting's through

CHORUS(SAME)
D A B G-

Do you see my tears girl?
Can you feel my pain? (Can you feel the pain?)
I take a long walk down that road again and again (Down the road again)
When the sun comes out, it'll dry my tears away
Oh, it's after the rain
All my pain will fade away

OUTRO=INTRO PT2

THATS IT   www.myspace/mixedbreedband
=========================================================================







Advertisement will be closed in 10 seconds