Mstrkrft - Heartbreaker tab

-------------------------------------------------------------------------------
			     HEARTBREAKER - MSTRKRFT
-------------------------------------------------------------------------------
Tabbed by: Sam	
Email: Samber679@hotmail.com

Tuning: Standard, Capo 1st fret
Accoustic version of Heartbreaker by MSTRKRFT

Verse
e|-2-2-2-2---0-0-0---0---2-2-2-2---------------|
B|-3-3-3-3---3-3-3---3---3-3-3-3---3-3-3-3-----|
G|-4-4-4-4---4-4-4---4---4-4-4-4---4-4-4-4-----|
D|---------------------------------------------|
A|-2-------------------0-----------------------|
E|---------3-------4-------------0-------------|

When you go into the chorus ther is one less 3 at the end.
                                             4
Chorus
e|---------------------------------------------|
B|---3---3-3-3-3-3-3-3---3---3-3-3---3---3-3-3-|
G|---4---4-4-4-4-4-4-4---4---4-4-4---4---4-4-4-|
D|---------------------------------------------|
A|-------------------------0-------2-----------|
E|-2---3---------------4---------------0-------|

Thats pretty much it, Enjoy.

************************************

| /   slide up
| \   slide down
| h   hammer-on
| p   pull-off
| ~   vibrato
| +   harmonic
| x   Mute note
| b   Bend
| pb  Pre-bend
| br  Bend release
| pbr Pre-bend release
| brb Bend release bend

************************************
Tap to rate this tab
 
# A B C D E F G H I J K L M N O P Q R S T U V W X Y Z