Song name
# A B C D E F G H I J K L M N O P Q R S T U V W X Y Z

Mt Desolation - Another Night On My Side chords

Highlighted       Show chord diagrams
Another Night On My Side - Mt. Desolation
Mt. Desolation (2010)

This is the way Jesse plays it live.


Capo 2


|----------------------------------------------------------------------|
|------------------------------------7----10b(12)---10-----------------|
|-(11)r9--7----(11)r9--7---7-------------------------------------------|
|------------------------9---------------------------------------------|
|----------------------------------------------------------------------|
|----------------------------------------------------------------------|


|----------------------------------------------------------------------|
|---7----10b(12)----(12)r10--8p7--5------------------------------------|
|------------------------------------7b(9)r7---------------------------|
|----------------------------------------------------------------------|
|----------------------------------------------------------------------|
|----------------------------------------------------------------------|

C
Little valentine
C                     F
We've been losing our way
G
Lately
C
Love has cut adrift
C                 F  G
On a sea with no waves
C 
I've got a heavy heart
C                      F
I've got to lighten my load
G
Baby
C                                  F      G
I'm a planet just spinning out of control  


F
Baby can you turn the tide
C       G          F
Another night on my side
F                     G       C  F C
Baby can you turn the tide on me


C                                    F
I remember when we would always come first
G
Sweetheart
C
Then ambition came
C                  F   G
Stealing in like a thirst


F
Baby can you turn the tide
C       G          F
Another night on my side
F                     G       C  F C
Baby can you turn the tide on me


F
You want your old life
F                     C   G
You want the innocent fire
F
Well I've been thinking of the same things
F                             C   G
Like back when love was still wild


C
Maybe we could go
C                 F
Maybe we could go home
G
Darling
C
Take another go
C                            F   G
'Cause life is rough on your own


F
I'm hurting but I've got my pride
C       G          F
Another night on my side
F                     G       C  F C
Baby can you turn the tide on me
F               G      C  F C
Please turn the tide on me
Tap to rate this tab
# A B C D E F G H I J K L M N O P Q R S T U V W X Y Z