Song name
# A B C D E F G H I J K L M N O P Q R S T U V W X Y Z

Mu330 - Kkk Highway tab

intro
-1~--1-1-3-----------|
-1~--1-1-3-----------|
-2~--2-2-4-----------|
-3~--3-3-5-----------|
-3~--3-3-5-----------|
---------------------|

Did you know that the...
                       -x-3-x-3-x-3-x-3-x-1-x-1-x-3-x-3-----|
                       -x-5-x-5-x-3-x-3-x-1-x-1-x-3-x-3-----|
                       -x-5-x-5-x-4-x-4-x-2-x-2-x-4-x-4-----|   repeat until
                       ---5---5---5---5---3---3---5---5-----| last verse.
                       -----------5---5---3---3---5---5-----|
                       -------------------------------------|

outro
They get a good look
 every day in the mirror
they get a good look
every day in the mirr~or
  --x-3-x-3-x-3-x-3-1~-1-x-x-3~-3-x-x-3~-------------------|
  --x-5-x-5-x-3-x-3-1~-1-x-x-3~-3-x-x-5~-------------------|
  --x-5-x-5-x-4-x-4-2~-2-x-x-4~-4-x-x-5~-------------------|
  ----5---5---5---5-3~-3-----5~-5-----5~-------------------|
  ------------5---5-3~-3-----5~-5--------------------------|
  ---------------------------------------------------------|
Tap to rate this tab
 
# A B C D E F G H I J K L M N O P Q R S T U V W X Y Z