Song name
# A B C D E F G H I J K L M N O P Q R S T U V W X Y Z

Mucas Face - Funky 1 tab

t. See http://www.olga.net/faq/ for more information.                     #
#-----------------------------------------------------------------------------#

Date: Tue, 2 Feb 1999 05:13:47 -0800 (PST)
From: Jorge Cunha 
Subject: m/mucas_face/funky_1.tab


This is really a funky song, based on the 70's blues riff. It is
relatively easy to play, if played on the correct order and path.

Verse
Play it along with a undistorted guitar, on chords 
A and G for about 4 times, then "enter" the chorus 
           A                     G
E--0-3-3-5----0-3-3-5----0-3-5-3---0-3-5-3-----
A---------7-5--------7-5--------5-3-------5-3--        
D----------------------------------------------
G----------------------------------------------

Chorus
Play this riff twice, then back to verse pt
E--0-3-3-------------------3-5-6---3-5---------
A-------0-2-3----0-2-3----------3-5---1-1-1-1--
D------------0-2------0-2-0--------------------
G----------------------------------------------

Then up again to the verse pt.
Note that a guitar with a small Fuzz distortion is to be played along
with the bass on the same riff
The rithm maintains and tries to follow the riffs on fifth shaped
chords, and quick changes of rythm.

  Enjoy
Jorge Cunha
Tap to rate this tab
# A B C D E F G H I J K L M N O P Q R S T U V W X Y Z