Song name
# A B C D E F G H I J K L M N O P Q R S T U V W X Y Z

Mucc - Danzetsu tab

Intro
     C
E|----------------------------------------------------|
B|---------1--------1--------3--------1--------0h1----|
G|------------0--------0--------0--------0------------|
D|------2--------2--------2--------2--------2---------|  x2
A|---0------------------------------------------------|
E|----------------------------------------------------|


Bridge
    C               E             Am
E|--------------------------------------0----------------|
B|---------1------------0------------1-----1-------------|
G|------0-----0------1-----1------2-----------2-----2----|
D|---2------------2------------2-----------------2-------| x2
A|-------------------------------------------------------|
E|-------------------------------------------------------|


Verse
      C               E             Am
E|--------------------------------------0----------------|
B|---------1------------0------------1-----1-------------|
G|------0-----0------1-----1------2-----------2-----2----|
D|---2------------2------------2-----------------2-------|
A|-------------------------------------------------------|
E|-------------------------------------------------------|
     Dm                            Am
E|------------3---------------------0--------------------|
B|---------3-----3---------------1-----1-----------------|
G|------2-----------2---------2-----------2-----2--------|
D|---0-----------------0---2-----------------2-----------|
A|-------------------------------------------------------|
E|-------------------------------------------------------|

      C               E             Am
E|--------------------------------------0--------------0---------------|
B|---------1------------0------------1-----1--------------1------------|
G|------0-----0------1-----1------2-----------2-----2--------2---------|
D|---2------------2------------2-----------------2--------------2------|
A|---------------------------------------------------------------------|
E|---------------------------------------------------------------------|

Repeat the Verse


Verse 2
Am                           Dm
Owari to iu genjitsu wo shiranakatta osanago wa

                                        Am
Amari ni mo muzan de zankokuna kotae wo shirasareta

                                              Dm
Jinbutsuzou de sae mada kare no naka ni kakutei shikitteinai no ni

                                              Am
Suki, kirai, dake no sekai de putsuri to shadansareta kiroku


Chorus
        Am          E               Am       C
Doa wo akeru to midareta keshiki wa masshiro de

    Am               E               Am              C
Kiita koto no nai urusai chinmoku ga totemo kurushikute

     Am              E                    Am             C
Nareshitashinda byoushitsu wa boku hitori ni wa hirosugite

   Am                   E                Am
Atarashii shiitsu ga nazeka kanashimi no ato wo osu


Bridge x4


Verse3
      Am                                              Dm
Hi ga kureru ni sore ni tsure sore wa jojo ni katachi wo kaehajimeru

                                           Am
Daremokaremo ga hibi no haitta basho wo muriyari meyou otoshita

                                    Dm
Nandomo outo wo kurikaesukarerou fukai fukai mizo wa

                                         Am
Yagate nanimo umerarenai katachi ni henkeishiteyuku


Chorus


Chorus 2
     Am                E                 Am       C
Madogiwa ni kazarareta hana ga mushou ni itoshikute

     Am                E               Am           C
Memojou ni wa kotoba dake ga kanashiku tsuzurareteite

   Am                E                 Am           C
Atatakai hazu no beddo wa doushiyoumonaku tsumetakute

    Am             E                    Am
Doa wo aketemo ano keshiki ni wa nidoto deaenai


Outro
    Am        E         Am      C
Sayonara, sayonara, sayonara, aaaaah
Tap to rate this tab
# A B C D E F G H I J K L M N O P Q R S T U V W X Y Z