Song name
# A B C D E F G H I J K L M N O P Q R S T U V W X Y Z

Muddy Waters - Country Blues Number One tab

-----------------------------------------------------------------------------
			Country Blues, Number One - Muddy Waters
-----------------------------------------------------------------------------
 PLEASE RATE THIS!   This is a great song and a first,(recorded in 1946),of the great 
Waters. I think it is kinda rare too, i heard it on "Martin Scorsese Presents the
Blues" anyways...
 The song is played with a slide and your index finger should do it but whatever works 
you.

Intro Part

e|-----10/12--10/12--10/12--10/12-----------------------------|
B|-----10/12--10/12--10/12--10/12-------------------------0---|
G|----------------------------------10/12--10/12/10---5---0---|
D|----------------------------------10/12--10/12/10---5---0---|
A|--------------------------------------------------------0---|
E|------------------------------------------------------------|

e|----------------------------------|
B|--0-0-0-0-0-0-0-0-0-0-------------|
G|--0-0-0-0-0-0-0-0-0-0-------------|
D|--3-----2-----1-----0-------0-0---|
A|------------------------2/4-------|
E|----------------------------------|

 Verse
e|---------------------------|
B|-------------0-0-0-0-0-----|
G|-------------0-0-0-0-0-----|
D|-------0---0-3---2---0-----|
A|---3/4---------------------|
E|---------------------------|

Second Part of Verse
e|-------------------------------------------------------|
B|-------------------------------------------------------|
G|--------------------------------12~-------------12~----|
D|------------------------------0---------0-----0--------|
A|---2/4-4---2/4-4--2/4-4---2/4-------3/4---2/4----------|
E|-------------------------------------------------------|

e|---------------------------------------------------------|
B|--------------------------0-0-0-0-0-0-0-0-0-0------------|
G|--------------------------0-0-0-0-0-0-0-0-0-0------------|
D|------------------------0-3-----2-----1-----0------0-0---|
A|--2/4-2---2/3-3--2/3-3--------------------------2/4------|
E|---------------------------------------------------------|

 This is all i could get out of the solo part so if anyone can figure out
 anything else please post it.

  (2:41)
e|------------------------------------------------------------------------|
B|------------------------------------------------------------------------|
G|------------------------------------------------------------------------|
D|---------0--5/7-5/7--0-5/7--0-5/7---------0-2/4--0-2/4--0-2/4--0-2/4/3--|
A|--0-2/4----------------------------0-2/4--------------------------------|
E|------------------------------------------------------------------------|

e|---------------------------------------|
B|------0-0-0-0-0-0-0-0--------0-0-------|
G|------0-0-0-0-0-0-0-0--------0-0-------|
D|----0-3-----2-----1-0---2/4--0-0-------|
A|------------------------2/4------------|
E|---------------------------------------|

   Intro x1
   Verse x4
   Verse pt.2 x1
   Verse x4
   Verse pt.2 x1
   Verse x4
   Verse pt.2 x1
   Verse x4
   Verse pt.2 x1
   Solo
   Verse x4
   Verse pt.2 x1
   Outro (not tabbed)                            Peace

=============================================================================
Tap to rate this tab
# A B C D E F G H I J K L M N O P Q R S T U V W X Y Z