Muddy Waters - Mannish Boy tab

Mannish Boy
Muddy Waters

Intro:
e|3/5-------------------------3/5--------------3-------------------|
B|------5/3---3/5/3----------------3/5---5/3-----3b5r3-------------|
G|-------------------5/2--------------------------------5/2--------|
D|-----------------------------------------------------------------|
A|-----------------------------------------------------------------|
E|-----------------------------------------------------------------|

Main riff:
Can be played like this
e|-----------------------------------------------------------------|
B|-----------------------------------------------------------------|
G|-----------------------------------------------------------------|
D|---7-----5-------------------------------------------------------|
A|7--5--7--3--7----------------------------------------------------|
E|5-----5-----5----------------------------------------------------|

This sounds good too
e|-----------------------------------------------------------------|
B|--3--1-----------------------------------------------------------|
G|2--2--2----------------------------------------------------------|
D|2--2--2----------------------------------------------------------|
A|-----------------------------------------------------------------|
E|-----------------------------------------------------------------|
Tap to rate this tab
 
# A B C D E F G H I J K L M N O P Q R S T U V W X Y Z