Song name
# A B C D E F G H I J K L M N O P Q R S T U V W X Y Z

Muddy Waters - Long Distance Call Live tab

                         Intro
  Q.=57
                             E
 12/8
  Gtrs I, II
                     ~~                                      ~~~~
  W        E  Q   a  E     a  Q.    a  E  a  E   E    Q.    +Q.
|------------12--11s12-||-11s12----11s12-10s11-(12)-(12)---(12)---|
|----------------------||-----------------------12---12----(12)---|
|----------------------||-----------------------------------------|
|----------------------||-----------------------------------------|
|----------------------||-----------------------------------------|
|----------------------||-----------------------------------------|
                              H.                      H.


   a  E  E  E  a  E  a  E  a  E  a  E  E  E   E   a  E  E
|-10s12-12-12-10s12-10s12-10s12-10s12-11-12-(12)-----------|
|----------------------------------------12--12------------|
|------------------------------------------------12s13-----|
|------------------------------------------------------14--|
|----------------------------------------------------------|
|----------------------------------------------------------|


                            E/A
  ~~
  Q.    a  E  a  E  a  E  a  E  a  E  a  E  a  E  E  E
|------11s12-11s12-11s12-11s12-11s12-11s12-11s12-------|
|------11s12-11s12-11s12-11s12-11s12-11s12-11s12-/9----|
|-9-------------------------------------------------/9-|
|------------------------------------------------------|
|------------------------------------------------------|
|------------------------------------------------------|


  E           B7
  ~~                PM
  Q   E E E E Q.    E  E E
|------------------------3-||
|------------------------3-||
|-9\-------------------3-3-||
|------------------(0)-----||
|-------0-1-2-2-----2------||
|-----3--------------------||


   Verse 1 and 2 -
    E7                     E?
              PM   PM           PM---|     PM
    Q.   Q.   q  E E E E   Q.   Q.   E E E e E E
||--4------------4-----4-|-3---------3---3---3-3--|
||o-3------------3---0-3-|-2-----------x-----2-2--|
||--4------------4-----4-|-3-----------x-----3-3--|
||-----------------------|-------------x----------|
||o----------------------|------------------------|
||------------0----0-----|------0----0-----0------|


  E7
  e E E e E E e E E e E E   e E E e E E Q  E E  E E
|-4-4-4-4-4-4-4-4-4---3-3-|-4-4-4-4-4-4-4--4-4\-----|
|-3---3-3---3-3---3---2-2-|-3-3-3-3-3-3-3--3-3\-----|
|-4-----------4-------3-3-|-4--------------4-4\-----|
|-------------------------|-------------------------|
|-------------------0-----|-------------------------|
|-0---0-0---0-0---0-0-----|-0---0-0---0-0-------2-3-|


  A7
  q.   e E E Q  E E E E   e E E e E E e E E +E  E E
|------3-3-3-3--3-3-----|-3-----3-3-3-3-3-3-(3)-----|
|--------2------2-------|---------2-----2-----------|
|-----------------------|-----x---------------------|
|---------------------2-|-----x-------------------2-|
|-0----0---0-0----0-4---|-0---x-0---0-0---0-(0)-0---|
|------0---0-0----0-----|-0-----0---0-0---0-(0)-----|


  E7
                                              ~~~~~~~~~~~~~
  Q     E E a E a E a S S E a E a S S E a E   Q.   E E E Q  a E a S S E E
|-------0-0-3s5-3s5-3s5s3-0-3s5-3s5s3-0-3s5-|------------------------------|
|-------------------------------------------|-5----5-5-5-5--3s5-3s5s3-0----|
|-0tr1--------------------------------------|------------------------------|
|-------------------------------------------|------------------------------|
|-------------------------------------------|---------------------------2--|
|-------------------------------------------|------------------------------|


  B7                      A7
  ~~
  Q.   q.   E e E E E E   q.   q  E E E E e  E  E
|-2---------------------|------3----3-3-3-3-------|
|-0---------------------|-------------2---2-----x-|
|-2----2----2-2---------|-----------------------x-|
|------1----1-1---------|-----------------------x-|
|------x----x-x---------|-0----0-------------0----|
|------2----2-2-0h2-0h3-|------0----0---0---(0)---|


  E7                                                       B7
  Q     E E a E a E a S S E a E a S S E a E   Q    E E E E Q  E E E E
|-------0-0-3s5-3s5-3s5s3-0-3s5-3s5s3-0-3s5-|---------------------3-3--||
|-------------------------------------------|-5\------------------2-2-o||
|-0tr1--------------------------------------|---------------------3-3--||
|-------------------------------------------|--------------------------||
|-------------------------------------------|--------0-1h2-2--2-------o||
|-------------------------------------------|-----/3-------------------||


 Verse 3 -
            PM   PM           PM--------|
  Q.   Q.   q  E E E E   Q.   Q.   Q.   e E E
|-4------------4-----4-|-3----------------3-3-|
|-3----------------0-3-|-2----------------2-2-|
|-4------------------4-|-3----------------3-3-|
|----------------------|----------------------|
|----------------------|----------------------|
|-----------0----0-----|------0----0----0-----|


  e E E e E E e E E e E E   e E E e E E Q  E E  E E
|-4-4-4-4-4-4-4-4-4---3-3-|-4-4-4-4-4-4-4--4-4\-----|
|-3---3-3---3-3---3---2-2-|-3-3-3-3-3-3-3--3-3\-----|
|-4-----------4-------3-3-|-4--------------4-4\-----|
|-------------------------|-------------------------|
|-------------------0-----|-------------------------|
|-0---0-0---0-0---0-0-----|-0---0-0---0-0-------2-3-|


  A7
  q.   e E E Q  E E E E   e E E e E E e E E E E E
|------3-3-3-3--3-3-----|-3-----3-3-3-3-3-3-------|
|--------2------2-------|---------2-----2---------|
|-----------------------|-----x-------------------|
|---------------------2-|-----x-----------------2-|
|-0----0---0-0----0-4---|-0---x-0---0-0---0-x-0---|
|------0---0-0----0-----|-0-----0---0-0---0-x-----|


  E7
                                              ~~~~~~~~~~~~~
  Q     E E a E a E a S S E a E a S S E a E   Q.   E E E Q  a E a S S E E
|-------0-0-3s5-3s5-3s5s3-0-3s5-3s5s3-0-3s5-|------------------------------|
|-------------------------------------------|-5----5-5-5-5--3s5-3s5s3-0----|
|-0tr1--------------------------------------|------------------------------|
|-------------------------------------------|------------------------------|
|-------------------------------------------|---------------------------2--|
|-------------------------------------------|------------------------------|


  ~~
  Q.   q.   E e E E E E   q.   q  E E E E e  E  E
|-2---------------------|------3----3-3-3---------|
|-0---------------------|-----------2---2-------x-|
|-2----2----2-2---------|-----------------x-----x-|
|------1----1-1---------|-----------------x-----x-|
|------x----x-x---------|-0----0------0---x--0----|
|------2----2-2-0h2-0h3-|------0------0-----(0)---|


  E7
  Q      a  E  Q   a  E  a  Q   E   Q  a E
|-------10s12-12--10s12-10s12--12\-12--8s9-|
|------------------------------12\-12--8s9-|
|-0tr1-------------------------------------|
|------------------------------------------|
|------------------------------------------|
|------------------------------------------|


  E6
           ~~~~~~~~~~~ PM
   E   E a E Q  E +q   E Q.     W
|-(9)----7s9-9--9-(9)--x------|------*|
|-(9)----7s9-9--9-(9)--x------|------*|
|--9--/4-7s9-9--9-(9)--x------|------*|
|-----------------------------|------*|
|-----------------------------|------*|
|-----------------------------|------*|

Tap to rate this tab
 
# A B C D E F G H I J K L M N O P Q R S T U V W X Y Z