Song name
# A B C D E F G H I J K L M N O P Q R S T U V W X Y Z

Muddy Waters - Im Your Hoochie Coochie Man tab

This is a slow blues song.

Intro

E|---------------|---------------|
B|---------------|---------------|
G|---------------|---------------|
D|---------------|-2-------------|
A|-------0/2-----|-2-------0/2---|
E|----3-------3--|-0----3------3-|

Verse  

E|---------------||---------------|
B|---------------||---------------|
G|---------------||---------------|     X2
D|-2-------------||-2-------------|
A|-2-------0/2---||-2-------0/2---|
E|-0----3------3-||-0----3------3-|


E|-----------------|
B|-----------------|
G|-----------------|       X3
D|--2-----------0--|    
A|--2-------0/2----|
E|--0----3-------3-|

Chorus

E|-----------------------------------|------------------------------------|
B|-----------------------------------|---0----2---0---2---0---2---0---2---|
G|-----------------------------------|---0----2---0---2---0---2---0---2---|
D|-----------------------------------|------------------------------------|
A|--2--2--2-----2--2--2------2----2--|------------------------------------|
E|--0--0--0-----0--0--0------0----0--|---0--------0-------0-------0-------|

E|-----------------------------------|
B|---0----2---0---2---0---2---0---2--|
G|---0----2---0---2---0---2---0---2--|
D|-----------------------------------|
A|-----------------------------------|
E|---0--------0-------0-------0------|

E|---------------------------------------------------------------|
B|---------------------------------------------------------------|
G|---------------------------------------------------------------|
D|----2-------------------------2--------------------------------|
A|------0/2--2-0/2--0/2---0--------------------------------------|
E|--0------------------------3-----------------------------------|

E|---------------------------------------------------------------|
B|---------------------------------------------------------------|
G|---------------------------------------------------------------|
D|--------------------2------------------------------------------|
A|-------0/2----0/2--------------0-------------------------------|
E|--0--------------------0--------------0------------0-----------|

E|---------------------------------------------------------------|------|
B|---------------------------------------------------------------|------|
G|---------------------------------------------------------------|------|
D|---------------------------------------------------------------|------|
A|------2----------------------------------------------0---------|-0----|
E|----------------------------------------------------------3----|------|
1.
E|--------0-------------0-------------0-----------------0--------|
B|---------------------------------------------------------------|
G|-------------1---1--------2----2----------3----3---------------|
D|---------------------------------------------------------------|
A|-------------2------------3---------------4--------------------|
E|---0-----------------------------------------------------------|
2.
E|---------------------------------------------------------------|
B|---0----------------------------------0------------------------|
G|---------------------------------------------------------------|
D|---0-----------------------------------------------------------|
A|--------------0----1----2-------2-----------1--------2---------|
E|--------3-----------------------------------------------3------|
3.
E|----------------------------------------|------------------0---|
B|----------------------------------------|--0---------------3---|
G|-------1----1----1----2----2----3----3--|------------------4---|
D|----------------------------------------|--0---------------2---|
A|------------2----2----3----3----4----4--|-------2-----0----2---|
E|---0------------------------------------|------------------0---|

Tap to rate this tab
# A B C D E F G H I J K L M N O P Q R S T U V W X Y Z