Song name
# A B C D E F G H I J K L M N O P Q R S T U V W X Y Z

Mudhoney - Rose tab

----------------------------------------------------------------------------
			     The Rose - Mudhoney
----------------------------------------------------------------------------
Tabbed by: N.I. Romanov
Email: RedStarFac29@aol.com

Tuning: Eb

Intro(bass only)
G|-------------------------------------------------------------------------|
D|-------------------------------------------------------------------------|
A|-7--7-7--7\5-5--5-5--5\3-3-3/5-0-0---------------------------------------|
E|-------------------------------------------------------------------------|

Verse
e|-------------------------------------------------------------------------|
B|-------------------------------------------------------------------------|
G|-9--9-9--9-7-7--7-7--7-5-5-5-7-2-2---------------------------------------|
D|-9--9-9--9-7-7--7-7--7-5-5-5-7-2-2---------------------------------------|
A|-7--7-7--7\5-5--5-5--5\3-3-3/5-0-0---------------------------------------|
E|-------------------------------------------------------------------------|

Bridge Riff
e|-------------------------------------------------------------------------|
B|--------9-12~~~10-12-12h14/15-15h17--------------------------------------|
G|-9--9/12-----------------------------------------------------------------|
D|-------------------------------------------------------------------------|
A|-------------------------------------------------------------------------|
E|-------------------------------------------------------------------------|

(strum during break)
e|-------------------------------------------------------------------------|
B|-------------------------------------------------------------------------|
G|-9-----9-----------------------------------------------------------------|
D|-9---9-------------------------------------------------------------------|
A|-7-7---------------------------------------------------------------------|
E|-------------------------------------------------------------------------|

| /  slide up
| \  slide down
| h  hammer-on
| p  pull-off
| ~  vibrato
| +  harmonic
| x  Mute note
============================================================================
Tap to rate this tab
# A B C D E F G H I J K L M N O P Q R S T U V W X Y Z