Song name
# A B C D E F G H I J K L M N O P Q R S T U V W X Y Z

Mudhoney - You Got It Keep It Outta My Face tab

Okay, so I compiled a few tabs and added my own tablature so yeah. I think it sounds right.

Intro:
E-|-----------------|-------------------|--------------------------------|
B-|-----------------|-------------------|--------------------------------|
G-|-----7-5-------5-|-------7-5-------5-|-5-5-5-5-5-5-5--/-7-7-7-7-7-7-7-|
D-|-5-5-----7-5-7---|-5-5-5-----7-5-7---|--------------------------------|
A-|-----------------|-------------------|--------------------------------|
E-|-----------------|-------------------|--------------------------------|

Verse:
E|-------------------------------------------|
B|-------------------------------------------|
G|-----------------------5--5-------3--3--7b-|
D|--7-7-x-x-x-5--5-x-x-x-5--5-x-x-x-3--3-----|
A|--7-7-x-x-x-5--5-x-x-x-3--3-x-x-x-1--1-----|
E|--5-5-x=x=x-3--3-x-x-x------x-x-x----------|

Bridge Solo Thing
e|------------------------------------------------5-5-----5-5----------------|
B|---------0~-------00~------xx---7~7-77------8b^^^^^^8b^^^^^^8b-6-8b-6------|
G|-----0~------0~------------xx---6~6-66-------------------------------------|
D|---------------------------------------------------------------------------|
A|---------------------------------------------------------------------------|
E|---------------------------------------------------------------------------|


Bridge Solo Thing  After 2nd Verse

e|-----------------------------6---------------10-10----12-12-12b-12b-10-----|
B|------3/8~-8~-8~-8~8~-8~-8\6---6~---6-6/10-------------------------------9b|
G|---------------------------------------------------------------------------|
D|---------------------------------------------------------------------------|
A|---------------------------------------------------------------------------|
E|---------------------------------------------------------------------------|

Chorus:


E|--------------|
B|--------------|
G|--------------|
D|--3--5--7--7--|
A|--3--5--7--7--|
E|--1--3--5--5--|
Keep it outta my facee!


and yeah, that's about it. I probably made some errors but yeah. It sounds good. To me 
least. Haha.
Tap to rate this tab
# A B C D E F G H I J K L M N O P Q R S T U V W X Y Z