Song name
# A B C D E F G H I J K L M N O P Q R S T U V W X Y Z

Mudhoney - Suck You Dry tab



Intro 2x
|----------------------------------------------------------------------------|
|----------------------------------------------------------------------------|
|----------------------------------------------------------------------------|       
|----------------------------------------------------------------------------|
|---6 / 4 / 6 / 4 / 6----6 / 4 / 6 / 4 / 6----6 / 4 / 6 / 4 / 6----6-6-6-4-2-|
|---4 / 2 / 4 / 2 / 4----4 / 2 / 4 / 2 / 4----4 / 2 / 4 / 2 / 4--------------|

Verse
|----------------------------------------------------------------------------|
|----------------------------------------------------------------------------|
|----------------------------------------------------------------------------|       
|----------------------------------------------------------------------------|
|---6 / 4 / 6 / 4 / 6----6 / 4 / 6 / 4 / 6----6 / 4 / 6 / 4 / 6----6-6-6-4-2-|
|---4 / 2 / 4 / 2 / 4----4 / 2 / 4 / 2 / 4----4 / 2 / 4 / 2 / 4--------------|

Chorus x4
|---------------------------------------------------| 
|---------------------------------------------------|            
|---------------------------------------------------|              
|-6-x-6-x-6-x-6---9-x-9-x-9-x-9--11-x-11-x-11-x-11--|  
|-6-x-6-x-6-x-6---9-x-9-x-9-x-9--11-x-11-x-11-x-11--|
|-4-x-4-x-4-x-4---7-x-7-x-7-x-7---9-x--9-x--9-x--9--|

|----------------------|
|-----9-6---9--6-------|                  
|----------------------|
|----------------------|                        
|----------------------|

|---------------------------------------------------| 
|---------------------------------------------------|            
|---------------------------------------------------|              
|-6-x-6-x-6-x-6---9-x-9-x-9-x-9--11-x-11-x-11-x-11--|  
|-6-x-6-x-6-x-6---9-x-9-x-9-x-9--11-x-11-x-11-x-11--|
|-4-x-4-x-4-x-4---7-x-7-x-7-x-7---9-x--9-x--9-x--9--|

|----------------------|
|------9-6---9b--6-----|
|----------------------|
|----------------------|
|----------------------|
|----------------------|

|---------------------------------------------------| 
|---------------------------------------------------|            
|---------------------------------------------------|              
|-6-x-6-x-6-x-6---9-x-9-x-9-x-9--11-x-11-x-11-x-11--|  
|-6-x-6-x-6-x-6---9-x-9-x-9-x-9--11-x-11-x-11-x-11--|
|-4-x-4-x-4-x-4---7-x-7-x-7-x-7---9-x--9-x--9-x--9--|

|----------------------|
|-------6~-------------|
|----------------------|
|----------------------|
|----------------------|
|----------------------|

Solo 
|--------------------------------------------------11-14-11/16-13-11-11-11----|
|-9-9-9-9-12-9-------------------------7-9/12-9/14----------------------------|
|--------------7-9-7b-7b-7B----7pb-7pb----------------------------------------|
|-----------------------------------------------------------------------------|
|-----------------------------------------------------------------------------|
|-----------------------------------------------------------------------------|

|--------------|
|--------------|
|----8-11b-8---|
|--------------|
|--------------|

chorus
|---------------------------------------------------| 
|---------------------------------------------------|            
|---------------------------------------------------|              
|-6-x-6-x-6-x-6---9-x-9-x-9-x-9--11-x-11-x-11-x-11--|  
|-6-x-6-x-6-x-6---9-x-9-x-9-x-9--11-x-11-x-11-x-11--|
|-4-x-4-x-4-x-4---7-x-7-x-7-x-7---9-x--9-x--9-x--9--|

|----------------------|
|-----9-6---9--6-------|                  
|----------------------|
|----------------------|                        
|----------------------|

|---------------------------------------------------| 
|---------------------------------------------------|            
|---------------------------------------------------|              
|-6-x-6-x-6-x-6---9-x-9-x-9-x-9--11-x-11-x-11-x-11--|  
|-6-x-6-x-6-x-6---9-x-9-x-9-x-9--11-x-11-x-11-x-11--|
|-4-x-4-x-4-x-4---7-x-7-x-7-x-7---9-x--9-x--9-x--9--|

|----------------------|
|------9-6---9b--6-----|
|----------------------|
|----------------------|
|----------------------|
|----------------------|

|---------------------------------------------------| 
|---------------------------------------------------|            
|---------------------------------------------------|              
|-6-x-6-x-6-x-6---9-x-9-x-9-x-9--11-x-11-x-11-x-11--|  
|-6-x-6-x-6-x-6---9-x-9-x-9-x-9--11-x-11-x-11-x-11--|
|-4-x-4-x-4-x-4---7-x-7-x-7-x-7---9-x--9-x--9-x--9--|
Tap to rate this tab
 
# A B C D E F G H I J K L M N O P Q R S T U V W X Y Z