Guitaretab - guitar tabs
Song name
# A B C D E F G H I J K L M N O P Q R S T U V W X Y Z

Mudhoney - Sweet Young Thing tab

I found this tab on a site.
[ Tab from: http://www.guitaretab.com/m/mudhoney/41444.html ]
(4/4 Time) (Tuning [Low to High]: Eb Ab Db Gb Bb Eb) Intro:
 Eb                      B     Ab
----------------------------------------------------------------------------|
----------------------------------------------------------------------------|
-------------------------------2-2-2-2--------------------------------------|
-2-2-2---2-2-2-2-2-2-2-2---5---2-2-2-2--------------------------------------|
-2-2-2---2-2-2-2-2-2-2-2-3---3-0-0-0-0--------------------------------------|
-0-0-0---0-0-0-0-0-0-0-0----------------------------------------------------|
(Guitar 1)  Eb              B     Ab      Eb B Ab  Eb B AB  Eb B Ab
----------------------------------------------------------------------------|
----------------------------------------------------------------------------|
-----------------5-5-5-2-2-2-2----------------------------------------------|
-2-2-2-2-2-2-2-2-5-5-5-2-2-2-2----------------------------------------------|
-2-2-2-2-2-2-2-2-3-3-3-0-0-0-0----------------------------------------------|
-0-0-0-0-0-0-0-0------------------------------------------------------------|
(Guitar 1) (Repeat the Above Measure Three Times)
-------------------------------------------------10-------------------------|
--------------------------------------------------%-------------------------|
-*-----------------------------*--------*-----------------------------------|
-2-----------------------------2--------2-----------------------------------|
-2-----------------------------2--------2-----------------------------------|
-0-----------------------------0--------0-----------------------------------|
(Guitar 2) (*=w/Bar) (%=Feedback) Verse/Chorus:
 Eb              B     Ab       EbDb  E    EbDb  F#
----------------------------------------------------------------------------|
----------------------------------------------------------------------------|
-----------------5-5-5-2-2-2-2--9-7-7-10---9-7-7-12-------------------------|
-2-2-2-2-2-2-2-2-5-5-5-2-2-2-2--9-7-7-10---9-7-7-12-------------------------|
-2-2-2-2-2-2-2-2-3-3-3-0-0-0-0--7-5-5--8---7-5-5-10-------------------------|
-0-0-0-0-0-0-0-0------------------------------------------------------------|
(Guitar 1) (Repeat Twice then Play Below) (Third Time Through, Guitar 1
First Plays the Last Half of the Intro while Guitar 2 Plays Noise)
----------------------------------------------------------------------------|
--------------------------------9\7-7/10---9\7-7/12-------------------------|
--------------------------------9\7-7/10---9\7-7/12-------------------------|
--------------------------------9\7-7/10---9\7-7/12-------------------------|
----------------------------------------------------------------------------|
----------------------------------------------------------------------------|
(Guitar 2 w/Slide) (Repeat Twice then Play Below)  Ab
----------------------------------------------------------------------------|
-------------------------------------@--------------------------------------|
-14~-14~-14~-14~-14~-14~-14~-14~-14~-14~-14~-14~-14~-14~-14~-14~-14~-14\----|
----------------------------------------------------------------------------|
----------------------------------------------------------------------------|
----------------------------------------------------------------------------|
(Guitar 1) (Second Time Through Play Fill 1 Starting at @)
----------------------------------------------------------------------------|
-/14------------------------------------------------------------------------|
-/14------------------------------------------------------------------------|
-/14------------------------------------------------------------------------|
----------------------------------------------------------------------------|
----------------------------------------------------------------------------|
(Guitar 2) Fill 1:
 Ab
----------------------------------------------------------------------------|
----------------------------------------------------------------------------|
----------------------------------------------------------------------------|
-14~-14~-14~-14~-14~-14~-14~-14~-12~-12~-12~-12~-12~-12~-12~-12~-12~-12\----|
----------------------------------------------------------------------------|
----------------------------------------------------------------------------|
(Guitar 1) Bridge:
 Eb
----------------------------------------------------------------------------|
----------------------------------------------------------------------------|
----------------------------------------------------------------------------|
-2-----------2---2-----------2---2-----------2---2-----------2---2----------|
-2-----------2---2-----------2---2-----------2---2-----------2---2----------|
-0-----------0---0-----------0---0-----------0---0-----------0---0----------|
(Guitar 1)
----------------------------------------------------------------------------|
----------------------------------------------------------------------------|
----------------------------------------------------------------------------|
-9-9-9-9-9-9-9-9-9-9-9-9-9-9-9-9-9-9-9-9-9-9-9-9-9-9-9-9-9-9-9-9-2----------|
-7-7-7-7-7-7-7-7-7-7-7-7-7-7-7-7-7-7-7-7-7-7-7-7-7-7-7-7-7-7-7-7-2----------|
-0-0-0-0-0-0-0-0-0-0-0-0-0-0-0-0-0-0-0-0-0-0-0-0-0-0-0-0-0-0-0-0-0----------|
 P.M.___________________________________________________________|
(Guitar 2 w/o Slide) -0-3-0-----------------------------------------------------------------------|
-------3-0----------------------------------------------------------------------------------------|
--------------------------------------------------------------------------------------------------|
-----------2-2-2-2--------------------------------------------------------------------------------|
-----------2-2-2-2--------------------------------------------------------------------------------|
-----------0-0-0-0--------------------------------------------------------------------------------|
(Guitar 1) (Guitar 2 Tacet)
Related for Sweet Young Thing tab
×
Best way to learn
"Sweet Young Thing"